Song name
# A B C D E F G H I J K L M N O P Q R S T U V W X Y Z

Slipknot - This Cold Black tab

/This Cold Black/

/Slipknot/

/tabbed by rongold360/

/Tuning: Drop A- A,E,A,D,F#,B./

/To the best of my abilities./

Gtr. 1: James Root
Gtr. 2: Mick Thomson

SOLO

Gtr. 2

[1 and a half steps]
/---17b--17~-17--20-17-19-17---------16p13-------12h15p12--------------/
/----------------------------20-0-13-------13-------------14h16h17p14--/
/-------------------------------0-------------15-----------------------/
/----------------------------------------------------------------------/
/----------------------------------------------------------------------/
/----------------------------------------------------------------------/

[Cont.] [Half step bend]
/-------------------------------15-------------------------------/
/-------------0-15--15-15-16-18----18-16-15----------------------/
/---14-14-14b-------------------------------17-19-20-19-17-------/
/----------------------------------------------------------------/
/----------------------------------------------------------------/
/----------------------------------------------------------------/

[Cont.]
/------------------------------------------------------------------------------------/
/------------------------------------------------------------------------------------/
/------------------------------------------------------------------------------------/
/---19-20-19-17----------------------------------------------------------------------/
/---------------20-19-17-17-16-17-19-17-16-13-10-12-13-10-8-8-10-10-5-7-8-7-5-5-3----/
/------------------------------------------------------------------------------------/

[Cont.]
[Slack with whammy bar.]
/----------------------------------------------------------------/
/----------------------------------------------------------------/
/----------------------------------------------------------------/
/---0------------------------------------------------------------/
/----------------------------------------------------------------/
/----------------------------------------------------------------/

Gtr. 1
[Rhythm behind first part of the solo]
/----------------------------------------------------------------/
/----------------------------------------------------------------/
/----------------------------------------------------------------/
/----------------------------------------------------------------/
/---0-0-3-0-4-0-0-3-0-0-4-0-0-3h4--------------------------------/
/---0-0-3-0-4-0-0-3-0-0-4-0-0-3h4--------------------------------/

SOLO, part 2.

Gtr. 1 
[Have B string bend off fretboard]
/---15b~---13h15p13p12-13p12----12-------------------------------/
/---15b~---------------------15----15b~-13-----------------------/
/----------------------------------------------------------------/
/----------------------------------------------------------------/
/----------------------------------------------------------------/
/----------------------------------------------------------------/

[Cont.]
/----------------------------------------------------------------/
/---15~-15\----------------------------------10~-----------------/
/-----------11h12-9-9-9-7-5-9h10p9-7-5-5p0-9---------------------/
/----------------------------------------------------------------/
/----------------------------------------------------------------/
/----------------------------------------------------------------/

[Cont.]
/----------------------------------------------------------------/
/----------------------------------------------------------------/
/---10p9-12-9h12p9-9---------------------------------------------/
/--------------------10h12p9-------------------------------------/
/----------------------------7h9-5-3h5-2-------------------------/
/----------------------------------------------------------------/

[Cont.]
/---------------------------8h10p8p7-----------------------------/
/------------------------------------10p8------------------------/
/-------------5---------4h5---------------11p0-------------------/
/---5-----5h7---9p7-5h7------------------------7-5p8-7p5h6-------/
/-----8-7--------------------------------------------------------/
/----------------------------------------------------------------/

Gtr. 2
[Rhythm behind beginning of second part of solo]
/----------------------------------------------------------------/
/----------------------------------------------------------------/
/----------------------------------------------------------------/
/----------------------------------------------------------------/
/---6-----------------3------------------------------------------/
/---6---6-6-6-6-6-6---3---3-3-3-3-3-3----------------------------/

[Rest of rhythm to the second part is this:]
/----------------------------------------------------------------/
/----------------------------------------------------------------/
/----------------------------------------------------------------/
/----------------------------------------------------------------/
/-------1---3-----1----------3-----------------------------------/
/---0-0-1-0-3-0-0-1-0-0--3h4---4-3h4-----------------------------/
Tap to rate this tab
# A B C D E F G H I J K L M N O P Q R S T U V W X Y Z