Song name
# A B C D E F G H I J K L M N O P Q R S T U V W X Y Z

Slipknot - Scream tab

-------------------------------------------------------------------------------
			     Scream - Slipknot
-------------------------------------------------------------------------------
Tabbed by: Dante Zacofski
Email: deathangel1212@yahoo.com

Key
Tuning: B F# B E G# C#
The tuning's a drag ain't it?
. = palm mute

(2:43) First Guitar only - Solo type thing

|-------------------------------------|
|-------------------------------------|
|-----9-9-7-7-9-9-10-10-7-7-9-9-------|
|-7-7---------------------------10-10-|
|-------------------------------------|
|-------------------------------------|
  . .     . . . .
|-------------------------------------|
|-------------------------------------|
|-----9-9-----9-9-7-7-----------------|
|-7-7-----7-7---------10-10-9-9-------|
|-------------------------------10-10-|
|-------------------------------------|
  . .     . .

If you can't go up that high fast enough
it can also be done on the higher strings

|-----------------------------|
|-----5-5-3-3-5-5-6-6-3-3-----|
|-2-2---------------------5-5-|
|-----------------------------|
|-----------------------------|
|-----------------------------|
  . .     . . . .
|---------------------------------|
|-----5-5-----5-5-3-3-------------|
|-2-2-----2-2---------5-5-4-4-----|
|-----------------------------5-5-|
|---------------------------------|
|---------------------------------|
  . .     . . . .

Well that's my first tab. I made this because I was tired of the other ones being wrong, 
me know what you think or if you have corrections. Also let me know if you know the 
guitar part. You can email me at deathangel1212@yahoo.com

-Dante Zacofski
Tap to rate this tab
 
# A B C D E F G H I J K L M N O P Q R S T U V W X Y Z