Song name
# A B C D E F G H I J K L M N O P Q R S T U V W X Y Z

Slipknot - Left Behind Tab tab

Help us improve GuitareTab! Take a short survey!
***THIS IS THE REAL FORM TO PLAY THIS SONG***

++LEFT BEHIND++


  Drop to D //B,F#,B,E,G#,C#//


 C# -------------------------------------------------------------------
 G# -------------------------------------------------------------------
 E  -------------------------------------------------------------------
 B  -------------------------------------------------------------------
 F# -1-0-0-------1/6-6-----1-1--------1-----1-1---1/6-6-----1-1--------
 B  -------3-3-0-------0-0-----0-1h3----0-0-----0-------0-0-----0-1h3--
 

 C# -------------------------------------------------------------------
 G# -------------------------------------------------------------------
 E  -------------------------------------------------------------------
 B  -------------------------------------------------------------------
 F# -1-----1-1---1/6-6-----1-1--------1-----1-1---1/6-6-----1-1--------
 B  ---0-0-----0-------0-0-----0-1h3----0-0-----0-------0-0-----0-1h3--


 C# -------------------------------------------------------------------
 G# -------------------------------------------------------------------
 E  --------------------------------------------------8888888----------
 B  -------------------------------------------------------------------
 F# -1-----1-1---1/6-6-----1-1--------1-----1-1---1/6-6666666---------- 
 B  ---0-0-----0-------0-0-----0-1h3----0-0-----0----------------------


 C# -----------------------------------------------
 G# -----------------------------------------------
 E  --------------8-7--------------------8-7-3333--
 B  -1-0-0-3-0-0--6-5-6666--1-0-0-3-0-0--6-5-3333--     4 TIMES
 F# -1-0-0-3-0-0--6-5-6666--1-0-0-3-0-0--6-5-3333--
 B  -1-0-0-3-0-0------6666--1-0-0-3-0-0------------


 C# ----------------------------------------------------------------------
 G# ----------------------------------------------------------------------
 E  -3-3--8-8--3-3--8-8--3--8------------------------------------------------------
 B  ---------------------------6666666-0-1111111----                                   - F#  -1-1--6-6--1-1--6-6--1--6--6666666-0-1111111-                                      --B   ---------------------------6666666-0-1111111-             4TIMES


    ---------------------------------------------------------------
    ---------------------------------------------------------------
    -------------------------------------------------------------------
    -----------1-1-1-1-----------1-1-1-1--1-------------------------------   6 TIMES
    -1-1-1-1-1---------1-1-1-1-1---------1------------------------------
    -----------------------------------------6-6-6-6-6-6-6-0-1-1-1-1-1-1
    

    --------
    --------
    --------
    -6-6-0-0
    -6-6-0-0                 4TIMES                         END
    -6-6-0-0
Related for Left Behind Tab tab