Song name
# A B C D E F G H I J K L M N O P Q R S T U V W X Y Z

Slipknot - Wait & Bleed tab

Slipknot
“Wait And Bleed”

tuning: B F# B E G# C#

/ = slide
x – muted string
PM= palm mute
h = hammer on
b = bend
r = release
~ = vibrato

riff 1
guitar 1:
|-----------------------------------------------------|
|-----------------------------------------------------|
|-----------------------------------------------------|
|---0------7------1------8-----7---------8------------|
|----------------------------5-----7---6------8---8---|
|-0------7------1-----/8---------7----------8---8-----|
                                                                              
guitar 2: 
|----------------------------------------------|
|----------------------------------------------|
|-14-14-14-14-14-14-14-14-14-15-14-15-15-14-15-|
|--x--x--x--x--x--x--x--x--x--x--x--x--x--x--x-|
|-12-12-12-12-12-12-12-12-12-13-12-13-13-12-13-|
|----------------------------------------------|
                                                                              
riff 2:
|--------------------------------------------------|
|--------------------------------------------------|
|--------------------------------------------------|
|--------------------------------------------------|
|----------------------5-----------------------5---|
|-0-0-0---0-0-0---0-/6------0-0-0--0-0-0--0-/6-----|
                                                                              
riff 3:               
|-----------------------------------------------------|
|-----------------------------------------------------|
|-----------------------------------------------------|
|-----------------------------------------------------|
|-0-0-0---0-0-0---1—-4--1---0-0-0---0-0-0--—1--4--1---|
|-0-0-0---0-0-0---1--4--1---0-0-0---0-0-0---1--4--1---|
                 |___PM___|               |___PM___|

riff 4
part 1:                       
|-----------------------|
|-----------------------|
|-----------------------|
|-----------------------|
|----------14-----------|
|-10/11h13------10b--r~-|
         
part 2:
|-------------------------------|
|-------------------------------|
|-------------------------------|
|-------------------------------|
|-------0----0---------0----0---|
|-0h1h3----0-0---0h1h3----0-0---|

riff 5
guitar 1:
|-------------------------------------------------|
|-------------------------------------------------|
|-------------------------------------------------|
|-------------------------------------------------|
|-0--0--0--0--7--7--7--7--1--1--1--1--1--1--1--1--|
|-0--0--0--0--7--7--7--7--1--1--1--1--1--1--1--1--|

guitar 2: 
|----------------------------------------------|
|----------------------------------------------|
|-14-14-14-14-14-14-14-14-14-15-14-15-15-14-15-|
|--x--x--x--x--x--x--x--x--x--x--x--x--x--x--x-|
|-12-12-12-12-12-12-12-12-12-13-12-13-13-12-13-|
|----------------------------------------------|
                                                                              
outro
part 1:
|----------------------|
|----------------------|
|----------------------|
|----------------------|
|-0-0-0----0-0-0-1-4-1-|
|-0-0-0----0-0-0-1-4-1-|

part 2:
|--------|
|--------|
|--------|
|--------|
|-0-0-0--|
|-0-0-0--|

Tap to rate this tab
# A B C D E F G H I J K L M N O P Q R S T U V W X Y Z