Guitaretab - guitar tabs
Song name
# A B C D E F G H I J K L M N O P Q R S T U V W X Y Z

Slipknot - My Plague Tab tab

My Plague

Effects: Distortion(preferrably Tube), Flanger 

Thanks to Alfonso (LMK)

--------------------|--------------------|-------------------|---------------- 
--------------------|--------------------|-------------------|---------------- 
--------------------|--------------------|-------------------|---------------- 
--------------------|--------------------|-------------------|---------------- 
-00-0-0-------------|00-0-0--------------|00-0-0-------------|00-0-0---------- 
-00-0-0--1-h2-2p1---|00-0-0--1-h2-2p1----|00-0-0-1-h2-2p1----|00-0-0-1-h2-2p1- 
          *slowly hammer onto 2 

--------------------|--------------------|-------------------|---------------- 
--------------------|--------------------|-------------------|---------------- 
--------------------|--------------------|-------------------|---------------- 
--------------------|--------------------|-------------------|---------------- 
-00-0-0-------------|00-0-0--------------|00-0-0-------------|00-0-0---------- 
-00-0-0--1-h2-2p1---|00-0-0--1-h2-2p1----|00-0-0--1-h2-2p1---|00-0-0---------- 
PM----              ------               ------              ------ 

--------------------|--------------------|-------------------|---------------- 
--------------------|--------------------|-------------------|---------------- 
--------------------|--------------------|-------------------|---------------- 
--------------------|--------------------|-------------------|---------------- 
-0-0-0--------------|0-0-0---------------|0-0-0--------------|0-0-0-0--------- 
-0-0-0-1-h2-2p1-----|0-0-0--1-h2-2p1-----|0-0-0-1-h2-2p1-----|0-0-0-0--------- 
(0:12)              -----                -----               ------- 

--------------------|--------------------|-------------------|---------------- 
--------------------|--------------------|-------------------|---------------- 
--------------------|--------------------|-------------------|---------------- 
--------------------|--------------------|-------------------|---------------- 
-0-0-0-1-h2-2p1-----|0-0-0-1-h2-2p1------|0-0-0-1-h2-2p1-----|0-0-0-1-h2-2p1-- 
-0-0-0-1-h2-2p1-----|0-0-0-1-h2-2p1------|0-0-0-1-h2-2p1-----|0-0-0-1-h2-2p1-- 
(0:17)              -----                -----               ----- 

--------------------|--------------------|-------------------|---------------- 
--------------------|--------------------|-------------------|---------------- 
--------------------|--------------------|-------------------|---------------- 
--------------------|--------------------|-------------------|---------------- 
-0-0-0-1-h2-2p1-----|0-0-0-1-h2-2p1------|0-0-0-1-h2-2p1-----|0-0-0-1-h2-2p1-- 
-0-0-0-1-h2-2p1-----|0-0-0-1-h2-2p1------|0-0-0-1-h2-2p1-----|0-0-0-1-h2-2p1-- 
-----               -----                -----               ----- 

------------------------------------------------------------------------------ 
------------------------------------------------------------------------------ 
------------------------------------------------------------------------------ 
------------------------------------------------------------------------------ 
------------------------------------------------------------------------------ 
-17\\\\\\--------------------------------------------------------------------- 


--------------------|--------------------|-------------------|---------------- 
--------------------|--------------------|-------------------|---------------- 
--------------------|--------------------|-------------------|---------------- 
--------------------|--------------------|-------------------|---------------- 
-0-0-0-1-h2-2p1-----|0-0-0-1-h2-2p1------|0-0-0-1-h2-2p1-----|0-0-0-1-h2-2p1-- 
-0-0-0-1-h2-2p1-----|0-0-0-1-h2-2p1------|0-0-0-1-h2-2p1-----|0-0-0-1-h2-2p1-- 
-----               -----                -----               ----- 

--------------------|--------------------|-------------------|---------------- 
--------------------|--------------------|-------------------|---------------- 
--------------------|--------------------|-------------------|---------------- 
--------------------|--------------------|-------------------|---------------- 
-0-0-0-1-h2-2p1-----|0-0-0-1-h2-2p1------|0-0-0-1-h2-2p1-----|0-0-0-1-h2-2p1-- 
-0-0-0-1-h2-2p1------0-0-0-1-h2-2p1------|0-0-0-1-h2-2p1-----|0-0-0-1-h2-2p1-- 
-----               -----                -----               ----- 

--------------------|--------------------|-------------------|---------------- 
--------------------|-8---8--8--8--8-/---|-------------------|---------------- 
--------------------|-11--11-11b11b11b/---|-------------------|---------------- 
----5--810---------|--------------------|---5--810---------|---------------- 
-0--3--6-8---------|--------------------|0--3--6--8---------|22222222-555555- 
-0------------------|--------------------|0------------------|22222222-555555- 


--------------------|--------------------|-------------------|---------------- 
--------------------|-8---8--8--8--8-/---|-------------------|---------------- 
--------------------|11b-11b11b11b11b/---|-------------------|---------------- 
----5--8--10--------|--------------------|---5---8--10-------|---------------- 
-0--3--6---8--------|--------------------|0--3---6---8-------|22222222-555555- 
-0------------------|--------------------|0------------------|22222222-555555- 


--------------------|--------------------|-------------------|---------------- 
--------------------|--------------------|-------------------|---------------- 
--------------------|--------------------|-------------------|---------------- 
--------------------|--------------------|-------------------|---------------- 
-00-0-0-------------|00-0-0--------------|-------------------|---------------- 
-00-0-0--1-h2-2p1---|00-0-0--1-h2-2p1----|-------------------|---------------- 
------              ------                (ignore these blank measures) 

--------------------|--------------------|-------------------|---------------- 
--------------------|--------------------|-------------------|---------------- 
--------------------|--------------------|-------------------|---------------- 
--------------------|--------------------|-------------------|---------------- 
-0-0-0-1-h2-2p1-----|0-0-0-1-h2-2p1------|0-0-0-1-h2-2p1-----|0-0-0-1-h2-2p1-- 
-0-0-0-1-h2-2p1-----|0-0-0-1-h2-2p1------|0-0-0-1-h2-2p1-----|0-0-0-1-h2-2p1-- 
-----               -----                -----               ----- 

--------------------|--------------------|-------------------|---------------- 
--------------------|--------------------|-------------------|---------------- 
--------------------|--------------------|-------------------|---------------- 
--------------------|--------------------|-------------------|---------------- 
-0-0-0-1-h2-2p1-----|0-0-0-1-h2-2p1------|0-0-0-1-h2-2p1-----|0-0-0-1-h2-2p1-- 
-0-0-0-1-h2-2p1-----|0-0-0-1-h2-2p1------|0-0-0-1-h2-2p1-----|0-0-0-1-h2-2p1-- 
-----               -----                -----               ----- 

--------------------|--------------------|-------------------|---------------- 
--------------------|--------------------|-------------------|---------------- 
--------------------|--------------------|-------------------|---------------- 
--------------------|--------------------|-------------------|---------------- 
-22222222-----------|--------------------|-------------------|---------------- 
-22222222-----------|--------------------|-------------------|---------------- 


--------------------|--------------------|-------------------|---------------- 
--------------------|--------------------|-------------------|---------------- 
--------------------|-8---8--8--8--8-/---|-------------------|---------------- 
---5--8---10--------|-11--11-11b11b11b/---|--5--8---10--------|---------------- 
-0-3--6---8---------|--------------------|0-3--6---8---------|22222222-555555- 
-0------------------|--------------------|0------------------|22222222-555555- 
(1:24) 

--------------------|--------------------|-------------------|---------------- 
--------------------|--------------------|-------------------|---------------- 
--------------------|-8---8--8--8--8-/---|-------------------|---------------- 
---5--8--10---------|-11--11-11b11b11b/---|--5--8--10---------|---------------- 
-0-3--6---8---------|--------------------|0-3--6---8---------|22222222-55555-- 
-0------------------|--------------------|0------------------|22222222-55555-- 


--------------------|--------------------|-------------------|---------------- 
--------------------|--------------------|-------------------|---------------- 
--------------------|--------------------|-------------------|---------------- 
-------------3----43|------------3----43-|------------3----43|---------3----43 
------43-------43---|-----43-------43----|-----43-------43---|----43-----43--- 
-0-32----43---------|0-32----43----------|0-32----43---------|0-32---43------- 
PM------------------ PM------------------ PM----------------- PM-------------- 

--------------------|--------------------|-------------------|---------------- 
--------------------|--------------------|-------------------|---------------- 
--------------------|--------------------|-------------------|---------------- 
--------------------|--320------4/3------|-------------------|--320-----4/3--- 
-0-3-2-0--3h4-------|------3/2-----------|0-3-2-0--3h4-------|------3/2------- 
-0-3-2-0------3h4---|--------------------|0-3-2-0------3h4---|---------------- 
pm-----     Play this Riff 12 times      pm----- 

--------------------|--------------------|-------------------|---------------- 
--------------------|-8---8--8--8--8-/---|-------------------|---------------- 
--------------------|-11--11-11b11b11b/---|-------------------|---------------- 
---7-10--12---------|--------------------|--7-10--12---------|---------------- 
-0-5--8--10---------|--------------------|0-5--8--10---------|2222222-5555555- 
-0------------------|--------------------|0------------------|2222222-5555555- 


--------------------|--------------------|-------------------|---------------- 
--------------------|-8---8--8--8--8-/---|-------------------|---------------- 
--------------------|-11--11-11b11b11b/---|-------------------|---------------- 
---5--8--10---------|--------------------|--5--8--10---------|---------------- 
-0-3--6-8----------|--------------------|0-3--6--8---------|2222222-5555555- 
-0------------------|--------------------|0------------------|2222222-5555555- 


--------------------|--------------------|-------------------|---------------- 
--------------------|--------------------|-------------------|---------------- 
---7-10--10--4--5---|--7-10--10----------|--7-10--10--4--5---|--7-10--10------ 
---x--x---x--x--x---|--x--x---x--4--5----|--x--x---x--x--x---|--x--x---x-4--5- 
-0-5--8-0-8--2--3---|0-5--8-0-8--x--x----|0-5--8-0-8--2--3---|0-5--8-0-8-x--x- 
-0------------------|0-----------2--3----|0------------------|0----------2--3- 


--------------------|--------------------|-------------------|---------------- 
--------------------|--------------------|-------------------|---------------- 
--------------------|--------------------|-------------------|---------------- 
--------------------|--------------------|-------------------|---------------- 
-0-0-0-1-h2-2p1-----|0-0-0-1-h2-2p1------|0-0-0-1-h2-2p1-----|0-0-0-1-h2-2p1-- 
-0-0-0-1-h2-2p1-----|0-0-0-1-h2-2p1------|0-0-0-1-h2-2p1-----|0-0-0-1-h2-2p1-- 


--------------------|--------------------|-------------------|---------------- 
--------------------|--------------------|-------------------|---------------- 
--------------------|--------------------|-------------------|---------------- 
--------------------|--------------------|-------------------|---------------- 
------------01-h22p1|0-0-0-0-0--01-h2-2p1|0-0-0-0-0-01-h2-2p1|0-0-0-0-0-01h2p- 
-0-0-0-0-0--01-h22p1|0-0-0-0-0--01-h2-2p1|0-0-0-0-0-01-h2-2p1|0-0-0-0-0-01h2p- 
---------  -        ---------            --------- - 

--------------------|--------------------|-------------------|---------------- 
--------------------|--------------------|-------------------|---------------- 
--------------------|--------------------|-------------------|---------------- 
--------------------|--------------------|-------------------|---------------- 
--------------------|--------------------|-------------------|---------------- 
-1-h2-2p1-----------|1-h2-2p1------------|1-h2-2p1-----------|1-h2-2p1-------- 
Flanger and Distortion until the end 



[ Tab from: http://www.guitaretab.com/s/slipknot/23479.html ]
Related for My Plague Tab tab