Song name
# A B C D E F G H I J K L M N O P Q R S T U V W X Y Z

Slipknot - Circle tab

Song Name- Circle
Slipknot
Tabbed By -jawz444



Intro/Verse

e|---------------------------------------------------------------------------|
B|---------------------------------------------------------------------------|
G|---------------------------------------------------------------------------|
D|---2-----------------------------------------------------------------------|
A|---2-----------------------------------------------------------------------|
E|---0-----------------------------------------------------------------------|

                 Chorus
e|---------------------------------------------------------------------------------|
B|--------3--------2----1----------------------------------------------------------|
G|--------2--------2----0--------2-------------------------------------------------|
D|--------0--------0----2--------2-------------------------------------------------|
A|----------------------3--------0-------------------------------------------------|
E|---------------------------------------------------------------------------------|
           Back To Verse Which Is The Same
e|------------------------------------------------------------------------------|
B|------------------------------------------------------------------------------|
G|-----2------------------------------------------------------------------------|
D|-----2------------------------------------------------------------------------|
A|-----0------------------------------------------------------------------------|
E|------------------------------------------------------------------------------|

Essentially the chords used in this song are- D Major, A Major, C Major, and E Minor.
Tap to rate this tab
 
# A B C D E F G H I J K L M N O P Q R S T U V W X Y Z