Song name
# A B C D E F G H I J K L M N O P Q R S T U V W X Y Z

Slipknot - Duality tab

tabbed by alex z                     slipknot duality        drop B

* = pinch harmonic
/ = slide up
\ = slide down
p = pull off
h = hammer on
pm = palm mute


hey people this is duality by slipknot and this is absolutely perfect


first jim starts with this

--------------------------------------------------------------------|
--------------------------------------------------------------------|
--------------------------------------------------------------------|
--------------------------------------------------------------------|
------5------8-----11-----6-----------------------------------------|
--------------------------------------------------------------------|x2

and mick does this, mick is playing at the same time as jim

--------------------------------------------------------------------|
--------------------------------------------------------------------|
--------------------------------------------------------------------|
--------------------------------------------------------------------|
--------------------------------------------------------------------|
--0-0-0-0-0-0-0-0-0-0-0-0-0-0-0-3-3-3-3-3-3-3-3-6-6-1-1-1-1-1-1-0---|x2

jim keeps this goin threw the intro

--------------------------------------------------------------------|
--------------------------------------------------------------------|
--------------------------------------------------------------------|
--------------------------------------------------------------------|
------5------8-----11-----6-----------------------------------------|
--------------------------------------------------------------------|x2

then mick does this

--------------------------------------------------------------------|
--------------------------------------------------------------------|
--------------------------------------------------------------------|
--0-0-0-0-0-0-0-0-0-0-0-0-0-0-0-3-3-3-3-3-3-3-3-6-6-1-1-1-1-3-1-0---|
--0-0-0-0-0-0-0-0-0-0-0-0-0-0-0-3-3-3-3-3-3-3-3-6-6-1-1-1-1-3-1-0---|
--0-0-0-0-0-0-0-0-0-0-0-0-0-0-0-3-3-3-3-3-3-3-3-6-6-1-1-1-1-3-1-0---|x2

then both guitars do this

--------------------------------------------------------------------|
--------------------------------------------------------------------|
--------------------------------------------------------------------|
--0-0-0--0-0--0-0-0--0-----3---5*-----------------------------------|
--0-0-0--0-0--0-0-0--0-1-1-3----------------------------------------|
--0-0-0--0-0--0-0-0--0-1-1-3----------------------------------------|x1

then they do this

--------------------------------------------------------------------|
--------------------------------------------------------------------|
--------------------------------------------------------------------|
--0-0-0--0-0--0-0-0--0----------------------------------------------|
--0-0-0--0-0--0-0-0--0-1-0--6\--------------------------------------|
--0-0-0--0-0--0-0-0--0-1-0--6\1*------------------------------------|x1

then mick do this for verse

----------------------------------------------------------------------|
----------------------------------------------------------------------|
----------------------------------------------------------------------|
----------------------------------------------------------------------|
----------------------------------------------------------------------|
--7-7-7-7-7-7-10-10-10-10-5-5-5-5-7-7-3-3-3-3-5-5-1-1-1-1-0-0-0-0-0-0-|x1

then mick and jim together play this

----------------------------------------------------------------------|
----------------------------------------------------------------------|
----------------------------------------------------------------------|
----------------------------------------------------------------------|
----------------------------------------------------------------------|
--7-7-7-7-7-7-10-10-10-10-5-5-5-5-7-7-3-3-3-3-5-5-1-1-1-1-0-0-0-0-0-0-|x4

then mick by himself plays this

----------------------------------------------------------------------|
----------------------------------------------------------------------|
----------------------------------------------------------------------|
----------------------------------------------------------------------|
----------------------------------------------------------------------|
--7-7-7-7-7-7-10-10-10-10-5-5-5-5-7-7-3-3-3-3-5-5-1-1-1-1-0-0-0-0-0-0-|x4

then jim at the same time plays this

----------------------------------------------------------------------|
----------------------------------------------------------------------|
----------------------------------------------------------------------|
---7-7-7-2-2-2-3-3-3---------------3-3-3-5-5-5-3-3-3-2-2-2-2-2-2-2----|
---------------------2-2-2-2-2-2-2------------------------------------|
----------------------------------------------------------------------|x4

then both guitars together play this pre chorus

----------------------------------------------------------------------|
----------------------------------------------------------------------|
----------------------------------------------------------------------|
------------------------------------1-1-------------------------------|
--3-3-3-3-3-3-3-3-3-3-3-3-3-3-3-2-2-1-1-------------------------------|
--3-3-3-3-3-3-3-3-3-3-3-3-3-3-3-2-2-1-1-------------------------------|

then chorus both guitars play this

--------------------------------------------------------------------|
--------------------------------------------------------------------|
--------------------------------------------------------------------|
--0-0-0-0-0-0-0-0-0-0-0-0-0-0-0-3-3-3-3-3-3-3-3-6-6-1-1-1-1-3-1-0---|
--0-0-0-0-0-0-0-0-0-0-0-0-0-0-0-3-3-3-3-3-3-3-3-6-6-1-1-1-1-3-1-0---|
--0-0-0-0-0-0-0-0-0-0-0-0-0-0-0-3-3-3-3-3-3-3-3-6-6-1-1-1-1-3-1-0---|x2

then mick by himself plays this

----------------------------------------------------------------------|
----------------------------------------------------------------------|
----------------------------------------------------------------------|
----------------------------------------------------------------------|
----------------------------------------------------------------------|
--7-7-7-7-7-7-10-10-10-10-5-5-5-5-7-7-3-3-3-3-5-5-1-1-1-1-0-0-0-0-0-0-|x1

----------------------------------------------------------------------|
----------------------------------------------------------------------|
----------------------------------------------------------------------|
----------------------------------------------------------------------|
---------------------------------------3-5-1-0------------------------|
--7-7-7-7-7-7-10-10-10-10-5-5-5-5-7-7--3-5-1-0------------------------|x1

then both guitars together play this

----------------------------------------------------------------------|
----------------------------------------------------------------------|
----------------------------------------------------------------------|
----------------------------------------------------------------------|
----------------------------------------------------------------------|
--7-7-7-7-7-7-10-10-10-10-5-5-5-5-7-7-3-3-3-3-5-5-1-1-1-1-0-0-0-0-0-0-|x2

then mick does this

----------------------------------------------------------------------|
----------------------------------------------------------------------|
----------------------------------------------------------------------|
----------------------------------------------------------------------|
----------------------------------------------------------------------|
--7-7-7-7-7-7-10-10-10-10-5-5-5-5-7-7-3-3-3-3-5-5-1-1-1-1-0-0-0-0-0-0-|x2

at the same time jim does this

----------------------------------------------------------------------|
----------------------------------------------------------------------|
----------------------------------------------------------------------|
---7-7-7-2-2-2-3-3-3---------------3-3-3-5-5-5-3-3-3-2-2-2-2-2-2-2----|
---------------------2-2-2-2-2-2-2------------------------------------|
----------------------------------------------------------------------|x2

then both guitars together play this for pre chorus

----------------------------------------------------------------------|
----------------------------------------------------------------------|
----------------------------------------------------------------------|
------------------------------------1-1-------------------------------|
--3-3-3-3-3-3-3-3-3-3-3-3-3-3-3-2-2-1-1-------------------------------|
--3-3-3-3-3-3-3-3-3-3-3-3-3-3-3-2-2-1-1-------------------------------|

then both guitars play this

--------------------------------------------------------------------|
--------------------------------------------------------------------|
--------------------------------------------------------------------|
--0-0-0-0-0-0-0-0-0-0-0-0-0-0-0-3-3-3-3-3-3-3-3-6-6-1-1-1-1-3-1-0---|
--0-0-0-0-0-0-0-0-0-0-0-0-0-0-0-3-3-3-3-3-3-3-3-6-6-1-1-1-1-3-1-0---|
--0-0-0-0-0-0-0-0-0-0-0-0-0-0-0-3-3-3-3-3-3-3-3-6-6-1-1-1-1-3-1-0---|x1

mick keeps playing this

--------------------------------------------------------------------|
--------------------------------------------------------------------|
--------------------------------------------------------------------|
--0-0-0-0-0-0-0-0-0-0-0-0-0-0-0-3-3-3-3-3-3-3-3-6-6-1-1-1-1-3-1-0---|
--0-0-0-0-0-0-0-0-0-0-0-0-0-0-0-3-3-3-3-3-3-3-3-6-6-1-1-1-1-3-1-0---|
--0-0-0-0-0-0-0-0-0-0-0-0-0-0-0-3-3-3-3-3-3-3-3-6-6-1-1-1-1-3-1-0---|x3

and jim plays this at the same time

--------------------------------------------------------------------|
--------------------------------------------------------------------|
--14-14\7-7/10-10/14-14/15-14-14------------------------------------|
----------------------------------3-3-3-3-3-3-3-6-1-1-1-1-3-1-0-----|
--12-12\5-5/8--8/-12-12/13-12-12--3-3-3-3-3-3-3-6-1-1-1-1-3-1-0-----|
----------------------------------3-3-3-3-3-3-3-6-1-1-1-1-3-1-0-----|x3

then bridge both guitars together play this

--------------------------------------------------------------------|
--------------------------------------------------------------------|
--------------------------------------------------------------------|
--0-0-0--0-0--0-0-0--0-----3---5*-----------------------------------|
--0-0-0--0-0--0-0-0--0-1-1-3----------------------------------------|
--0-0-0--0-0--0-0-0--0-1-1-3----------------------------------------|x1

then both guitars together

--------------------------------------------------------------------|
--------------------------------------------------------------------|
--------------------------------------------------------------------|
--0-0-0--0-0--0-0-0--0----------------------------------------------|
--0-0-0--0-0--0-0-0--0-1-0--6\--------------------------------------|
--0-0-0--0-0--0-0-0--0-1-0--6\1*------------------------------------|x1

then again together

--------------------------------------------------------------------|
--------------------------------------------------------------------|
--------------------------------------------------------------------|
--0-0-0--0-0--0-0-0--0-----3---5*-----------------------------------|
--0-0-0--0-0--0-0-0--0-1-1-3----------------------------------------|
--0-0-0--0-0--0-0-0--0-1-1-3----------------------------------------|x1

then again both guitars

--------------------------------------------------------------------|
--------------------------------------------------------------------|
--------------------------------------------------------------------|
--0-0-0--0-0--0-0-0--0----------------------------------------------|
--0-0-0--0-0--0-0-0--0-1-0-6-6-6-3-3-3------------------------------|
--0-0-0--0-0--0-0-0--0-1-0-6-6-6-3-3-3------------------------------|x1

again both guitars play this

--------------------------------------------------------------------|
--------------------------------------------------------------------|
--------------------------------------------------------------------|
--1-1-1--1-1--1-1-1--1-----3---5*-----------------------------------|
--1-1-1--1-1--1-1-1--1-3-1-3----------------------------------------|
--1-1-1--1-1--1-1-1--1-3-1-3----------------------------------------|x1

then both guitars again play this

--------------------------------------------------------------------|
--------------------------------------------------------------------|
--------------------------------------------------------------------|
--1-1-1--1-1--1-1-1--1----------------------------------------------|
--1-1-1--1-1--1-1-1--1-3-1-6\---------------------------------------|
--1-1-1--1-1--1-1-1--1-3-1-6\1*-------------------------------------|x1

then again guitars play

--------------------------------------------------------------------|
--------------------------------------------------------------------|
--------------------------------------------------------------------|
--1-1-1--1-1--1-1-1--1-----3---5*-----------------------------------|
--1-1-1--1-1--1-1-1--1-3-1-3----------------------------------------|
--1-1-1--1-1--1-1-1--1-3-1-3----------------------------------------|x1

then finally they play this together

--------------------------------------------------------------------|
--------------------------------------------------------------------|
--------------------------------------------------------------------|
--1-1-1--1-1--1-1-1--1----------------------------------------------|
--1-1-1--1-1--1-1-1--1-3-1-6\---------------------------------------|
--1-1-1--1-1--1-1-1--1-3-1-6\1*-------------------------------------|x1

then pre chorus again both guitars

----------------------------------------------------------------------|
----------------------------------------------------------------------|
----------------------------------------------------------------------|
------------------------------------1-1-------------------------------|
--3-3-3-3-3-3-3-3-3-3-3-3-3-3-3-2-2-1-1-------------------------------|
--3-3-3-3-3-3-3-3-3-3-3-3-3-3-3-2-2-1-1-------------------------------|x1

this time a little bit just before the chorus

------------------------------------------------------------------------|
------------------------------------------------------------------------|
------------------------------------------------------------------------|
------------------------------------------------------------------------|
------------------------------------------------------------------------|
--0-0-0-3-3-3-1-1-1-5-5-5-3-3-6-6-12-12-12-7-7-7-10-10-10-5-5-5-3-3-6-6-|

then chorus both guitars

--------------------------------------------------------------------|
--------------------------------------------------------------------|
--------------------------------------------------------------------|
--0-0-0-0-0-0-0-0-0-0-0-0-0-0-0-3-3-3-3-3-3-3-3-6-6-1-1-1-1-3-1-0---|
--0-0-0-0-0-0-0-0-0-0-0-0-0-0-0-3-3-3-3-3-3-3-3-6-6-1-1-1-1-3-1-0---|
--0-0-0-0-0-0-0-0-0-0-0-0-0-0-0-3-3-3-3-3-3-3-3-6-6-1-1-1-1-3-1-0---|x1

mick keeps goin with this

--------------------------------------------------------------------|
--------------------------------------------------------------------|
--------------------------------------------------------------------|
--0-0-0-0-0-0-0-0-0-0-0-0-0-0-0-3-3-3-3-3-3-3-3-6-6-1-1-1-1-3-1-0---|
--0-0-0-0-0-0-0-0-0-0-0-0-0-0-0-3-3-3-3-3-3-3-3-6-6-1-1-1-1-3-1-0---|
--0-0-0-0-0-0-0-0-0-0-0-0-0-0-0-3-3-3-3-3-3-3-3-6-6-1-1-1-1-3-1-0---|x3

and jim at the same time plays this

--------------------------------------------------------------------|
--------------------------------------------------------------------|
--14-14\7-7/10-10/14-14/15-14-14------------------------------------|
----------------------------------3-3-3-3-3-3-3-6-1-1-1-1-3-1-0-----|
--12-12\5-5/8--8/-12-12/13-12-12--3-3-3-3-3-3-3-6-1-1-1-1-3-1-0-----|
----------------------------------3-3-3-3-3-3-3-6-1-1-1-1-3-1-0-----|x3


then outro both guitars play this

--------------------------------------------------------------------|
--------------------------------------------------------------------|
--------------------------------------------------------------------|
-0-0-0-----------0-0-0--0-----3---5*--------------------------------|
-0-0-0--0-0-0-0--0-0-0--0-1-1-3-------------------------------------|
-0-0-0--0-0-0-0--0-0-0--0-1-1-3-------------------------------------|x1

then finally together they play this

--------------------------------------------------------------------|
--------------------------------------------------------------------|
--------------------------------------------------------------------|
-0-0-0-----------0-0-0--0-------------------------------------------|
-0-0-0--0-0-0-0--0-0-0--0-1-0-6\------------------------------------|
-0-0-0--0-0-0-0--0-0-0--0-1-0-6\1*----------------------------------|


well ladies and gentleman thats it spot on lol wooooooooooo go voliminal dvd is awesome 
this tab is rigth lyk big time
Tap to rate this tab
# A B C D E F G H I J K L M N O P Q R S T U V W X Y Z