Guitaretab - guitar tabs
Song name
# A B C D E F G H I J K L M N O P Q R S T U V W X Y Z

Slo Burn - Positiva chords

Highlighted       Show chord diagrams
Positiva - Slo Burn
Tabbed by Phil Mealing (mrmealing(at)gmail.com)

Slo Burn play in drop C but for this tab I stayed in standard tuning, mainly because the 
I'm in is too lazy to
tune their guitars down a whole step.
Listen to the song to learn the rythm of it.

Intro and verse -

    C   D#  A#  C   D#  F
E:|------------------------|
B:|------------------------|
G:|-5---8---3---5---8---10-|
D:|-x---x---x---x---x---x--|
A:|-3---6---1---3---6---8--|
E:|------------------------|


The chorus alternates between these two riffs.
Chorus - Oh yeah, if you listen I'll tell you one time.

    C   D#  A#  G#  G
E:|------------------|
B:|------------------|
G:|-5---8---3--------|
D:|-5---8---3---6---5|
A:|-3---6---1---6---5|
E:|-------------4---3|
[ Tab from: http://www.guitaretab.com/s/slo-burn/190139.html ]
Chorus - Oh yeah babe, I know you don't listen so i tell you a second time.

    C   A#  G#  G
E:|--------------|
B:|--------------|
G:|-5---3--------|
D:|-5---3---6---5|
A:|-3---1---6---5|
E:|---------4---3|

End of Chorus -

    C
E:|---|
B:|---|
G:|-5-|
D:|-5-|
A:|-3-|
E:|---|
After the first chorus, there's a small pause before going into the verse.
Also, it isn't played before going into the bridge.


Bridge - Give it to me, give it to me...

    C   D#  A#  C   D#  F
E:|------------------------|
B:|------------------------|
G:|-5---8---3---5---8---10-|
D:|-5---8---3---5---8---10-|
A:|-3---6---1---3---6---8--|
E:|------------------------|

Outro - Same as verse, only played once.

Song Structure:
Intro
Verse
Chorus
Verse
Chorus x 2
Bridge
Chorus (only for the first two lines)
Outro
Related for Positiva chords