Song name
# A B C D E F G H I J K L M N O P Q R S T U V W X Y Z

Slo Burn - July tab

July

Slo Burn

Tabbed by:Brownbear93

Tuning: C G C F A D

Intro:                                              x12           x16
|----------------------------------------|------------|------------|
|--(13~)---------------------------------|------------|------------|
|----------------------------------------|------------|------------|
|----------------------------------------|------------|------------|
|----------------------------------------|------------|------------|
|------------0-0---0-0-0---0-0-0---0-0-0-|-0-0-0-<2>--|-0-0-0-<4>--|

Verse:
|-------------------------------------------------------------------|
|-------------------------------------------------------------------|x8
|-------------------------------------------------------------------|
|--7-7-7-7-7-7-7-7-7-7-7-7-7-7-7-7-3-3-3-3-3-3-3-3-3-3-3-3-3-5-5-5--|
|--5-5-5-5-5-5-5-5-5-5-5-5-5-5-5-5-3-3-3-3-3-3-3-3-3-3-3-3-3-5-5-5--|
|--0-0-0-0-0-0-0-0-0-0-0-0-0-0-0-0-3-3-3-3-3-3-3-3-3-3-3-3-3-5-5-5--|

Chorus:
|---------------------------------------------|
|---------------------------------------------|x2
|---------------------------------------------|
|--7-------3-3-3-3-3-3-3-3-3-2-2-2-2-2-2-2-2--|
|--5-------3-3-3-3-3-3-3-3-3-2-2-2-2-2-2-2-2--|
|--0-------3-3-3-3-3-3-3-3-3-2-2-2-2-2-2-2-2--|

Verse

Chorus

G2:                 x2
|--------------------|----------------|
|--------------------|----------------|
|--------------------|----------------|
|-----------------3~-|--7-------------|
|---3--5--3--5p3-----|--5-------------|
|--------------------|--0-------------|

Verse

Chorus

|--------------------------|
|---------------/10--6~----|
|--5--7--5--7--------------|
|--------------------------|
|--------------------------|
|--------------------------|

|---------------------------------|
|---------------------------------|x2
|---------------------------------|
|------12-10h12---------12-10h12--|
|------12-10h12---------12-10h12--|
|--0-0-12-10h12-<4>-<4>-12-10h12--|

End
|-------------------------------------|
|-------------------------------------|
|-------------------------------------|
|--3-3-3-3-3-3-3-3-3-2-2-2-2-2-2-2-2--|
|--3-3-3-3-3-3-3-3-3-2-2-2-2-2-2-2-2--|
|--3-3-3-3-3-3-3-3-3-2-2-2-2-2-2-2-2--|

 ************************************
 | /   slide up
 | \   slide down
 | h   hammer-on
 | p   pull-off
 | ~   vibrato
 | +   harmonic
 | x   Mute note
 | b   Bend
 | pb  Pre-bend
 | br  Bend release
 | pbr Pre-bend release
 | brb Bend release bend
 | b`  slight bend (about a quarter step)
 | <>  Natural harmonic
 ************************************
Tap to rate this tab
# A B C D E F G H I J K L M N O P Q R S T U V W X Y Z