Song name
# A B C D E F G H I J K L M N O P Q R S T U V W X Y Z

Sloan - Coax Me tab

COAX ME [Chris Murphy]
As recorded by Sloan
(From the 1994 Album TWICE REMOVED)

Key of Emaj.
Standard tunings for lead and rhythm.
Clean lead with neck pickup.
Elapsed time markers included for each section.
Lyrics follow the tabs.

Chords, low > high
E = 0 2 2 1 0 0
G#m = 4 6 6 4 4 4
Esus4 = 0 2 2 2 x x
F# = 2 4 4 3 2 2 
G = 3 5 5 4 3 3 
G# = 4 6 6 5 4 4 

Duration Legend:
W - whole; H - half; Q - quarter; E - 8th; S - 16th; T - 32nd; X - 64th; a - acciaccatura
+ - note tied to previous; . - note dotted; .. - note double dotted 
___________________________________________________________________________

Intro: 0:00
  E E H.        E E Q.   Q.
|-----9-------|-----7----6----|
|---0---------|---0-----------|
|-9-----------|-9-------------|
|-------------|---------------|
|-------------|---------------|
|-------------|---------------|


  G#m                                 Esus4
  E E E E E E E E   E E E E E E E E   E E E E E E E E   E E E E E E E E
||---7-----7-----7-|---7-------4-----|---9-----9-----9-|---7-----6-----6--||
||-----0-----0-----|-----0-------0---|-----0-----0-----|-----0-----0------||
||-8-----8-----8---|-8-----8s6-----6s|=9-----9-----9---|-9-----9-----9----||
||-----------------|-----------------|-----------------|------------------||
||-----------------|-----------------|-----------------|------------------||
||-----------------|-----------------|-----------------|------------------||
                                                  It all seemed...

Chorus: 0:39, 1:19, 2:31
  G#m                 F#                Esus4
  E E E E  E E E  E   E E E E E E E E   E E E E E E E E   E E E E E E E E
|---7--------9------|---6-------7-----|---4-----2-----4-|---2-----0-----0--|
|-----0--------0----|-----0-------0---|-----0-----0-----|-----0-----0------|
|-8-----8s11-----11s|=6-----6s8-----8-|-4-----4-----4---|-4-----4-----4----|
|-------------------|-----------------|-----------------|------------------|
|-------------------|-----------------|-----------------|------------------|
|-------------------|-----------------|-----------------|------------------|
           Coax       me      cajole      me

Bridge: 1:41
  G                                   E
  E E E E E E E E   E E E E E E E E   E E E E E E E E   E E E E E E E E
|---5-----5-----5-|---5-----5-----0-|---4-----2-----4-|---2-----0-----0--|
|-----3-----3-----|-----3-----3-----|-----0-----0-----|-----0-----0------|
|-4-----4-----4---|-4-----4-----4---|-4-----4-----4---|-4-----4-----4----|
|-----------------|-----------------|-----------------|------------------|
|-----------------|-----------------|-----------------|------------------|
|-----------------|-----------------|-----------------|------------------|
                                              And      after          he
Final chord:
  G#
  W          +W
|-4--------|-(4)----*|
|-4--------|-(4)----*|
|-5--------|-(5)----*|
|-6--------|-(6)----*|
|-6--------|-(6)----*|
|-4--------|-(4)----*|
Tap to rate this tab
# A B C D E F G H I J K L M N O P Q R S T U V W X Y Z