Song name
# A B C D E F G H I J K L M N O P Q R S T U V W X Y Z

Slow Club - When I Go tab

   hey guys, this is my first tab hope you enjoy :D
   I did this by ear so sorry if theres any mistakes


   e------------------------------------------------------------------------|
   b------------1-----1-----------------------4-4-3-1-----------------------|
   g-----3p1-3----3-1---3-1-0----3/5--3---------------3--0h3--5-------------|
   d------------------------------------3-----------------------------------|
   a------------------------------------------------------------------------|
   E------------------------------------------------------------------------|

   e---------------------------------|
   b---------------------------------|
   g-----------0-3--0----------------|
   d-------1-3--------3--1p0--1------|
   a---1/3---------------------------|
   E---------------------------------|
Tap to rate this tab
 
# A B C D E F G H I J K L M N O P Q R S T U V W X Y Z