Song name
# A B C D E F G H I J K L M N O P Q R S T U V W X Y Z

Slow Warm Death - Sunburn tab

SLOW WARM DEATH - SUNBURN






Tuning: EADGBe
http://slowwarmdeath.bandcamp.com/



INTRO:

E|------------------------------------------------------|
B|------------------------------------------------------|
G|------------------------------------------------------|
D|------------------------------------------------------|
A|--------------------5--7--5-----------------5h7p5--2--|
E|--5--5--6--7--7--7-----------7--7--5--6--7------------|



VERSE:

E|--7-------0---|
B|--7-------0---|
G|--8-------1---|
D|--9-------2---|
A|--9-------2---|
E|--7-------0---|



CHORUS:

E|--7--------2--------7--------0--------7----5----0----|
B|--7--------2--------7--------0--------7----5----0----|
G|--8--------3--------8--------1--------8----6----1----|
D|--9--------4--------9--------2--------9----7----2----|
A|--9--------4--------9--------2--------9----7----2----|
E|--7--------2--------7--------0--------7----5----0----|



AT THE END OF THE SECOND CHORUS, PLAY THIS:

E|--2---|
B|--2---|
G|--3---|
D|--4---|
A|--4---|
E|--2---|




INTRO
VERSE
CHORUS
INTRO
VERSE
CHORUS x2
CHORUS (INSTRUMENTAL)
CHORUS
Tap to rate this tab
# A B C D E F G H I J K L M N O P Q R S T U V W X Y Z