Song name
# A B C D E F G H I J K L M N O P Q R S T U V W X Y Z

Small Brown Bike - Now And Forever tab

-------------------------------------------------------------------------------
	              NOW AND FOREVER - Small Brown Bike
-------------------------------------------------------------------------------
Tabbed by: Matt Thomas
Email: startstatik@gmail.com

Tuning: Eb,Ab,Db,Gb,Bb,eb

   There are two guitars in this song, but I merged them together for the tab to keep 
simple and make it easy for you to play by yourself. Enjoy.

   Intro  (These are "10"s)
eb|---------------------------|
Bb|---------------------------|
Gb|---------------------------|
Db|-10-10-10-10-10-10-10-1010-|
Ab|-10-10-10-10-10-10-10-1010-|
Eb|-8--8--8--8--8--8--8--8-8--|

eb|-----------------------------|
Bb|-----------------------------|
Gb|-----------------------------|
Db|-5--5-5-5--5-5-5\7-7-7-7-7-7-|
Ab|-5--5-5-5--5-5-5\7-7-7-7-7-7-|
Eb|-3--3-3-3--3-3-3\5-5-5-5-5-5-|

eb|------------------------------------|
Bb|------------------------------------|
Gb|-12-12-12-1111119-9-7-7-7-7-7-7-7-7-|
Db|------------------------------------|
Ab|-10-10-10-9-9-9-7-7-5-5-5-5-5-5-5-5-|
Eb|------------------------------------|

eb|-----------------------------|
Bb|-----------------------------|
Gb|-----------------------------|
Db|-5--5-5-5--5-5-5\7-7-7-7-7-7-|
Ab|-5--5-5-5--5-5-5\7-7-7-7-7-7-|
Eb|-3--3-3-3--3-3-3\5-5-5-5-5-5-|

eb|----------------------------------------------|
Bb|----------------------------------------------|
Gb|-12-12-12-11111114-14-12-12-12-12-12-12-12-12-|
Db|----------------------------------------------|
Ab|-10-10-10-9-9-9-12-12-10-10-10-10-10-10-10-10-|
Eb|----------------------------------------------|

   Verse
eb|------------------------XXXXXXXXXXXXXXXXXXXXX-|
Bb|------------------------XXXXXXXXXXXXXXXXXXXXX-|
Gb|-16---------------------XXXXXXXXXXXXXXXXXXXXX-|
Db|----(let ring)----------XXXXXXXXXXXXXXXXXXXXX-|
Ab|-14---------------------XXXXXXXXXXXXXXXXXXXXX-|
Eb|------------------------XXXXXXXXXXXXXXXXXXXXX-|

eb|-----------------------------------|
Bb|-----------------------------------|
Gb|-111111111111111111111111111114-14-|
Db|-----------------------------------|  x4
Ab|-9-9-9-9-9-9-9-9-9-9-9-9-9-9-12-12-|
Eb|-----------------------------------|

   Break
eb|-----------------------------------------|
Bb|-----------------------------------------|
Gb|-111111111111111111\-7-7-\-4-4-/-14-14-\-|
Db|-----------------------------------------|  x4
Ab|-9-9-9-9-9-9-9-9-9-\-5-5-\-2-2-/-12-12-\-|
Eb|-----------------------------------------|

eb|-----------------------------|
Bb|-----------------------------|
Gb|-----------------------------|
Db|-5--5-5-5--5-5-5\7-7-7-7-7-7-|
Ab|-5--5-5-5--5-5-5\7-7-7-7-7-7-|
Eb|-3--3-3-3--3-3-3\5-5-5-5-5-5-|

eb|------------------------------------|
Bb|------------------------------------|
Gb|-12-12-12-1111119-9-7-7-7-7-7-7-7-7-|
Db|------------------------------------|
Ab|-10-10-10-9-9-9-7-7-5-5-5-5-5-5-5-5-|
Eb|------------------------------------|

eb|-----------------------------|
Bb|-----------------------------|
Gb|-----------------------------|
Db|-5--5-5-5--5-5-5\7-7-7-7-7-7-|
Ab|-5--5-5-5--5-5-5\7-7-7-7-7-7-|
Eb|-3--3-3-3--3-3-3\5-5-5-5-5-5-|

eb|----------------------------------------------|
Bb|----------------------------------------------|
Gb|-12-12-12-11111114-14-12-12-12-12-12-12-12-12-|
Db|----------------------------------------------|
Ab|-10-10-10-9-9-9-12-12-10-10-10-10-10-10-10-10-|
Eb|----------------------------------------------|

   Verse
eb|------------------------XXXXXXXXXXXXXXXXXXXXX-|
Bb|------------------------XXXXXXXXXXXXXXXXXXXXX-|
Gb|------------------------XXXXXXXXXXXXXXXXXXXXX-|
Db|-9--(let ring)----------XXXXXXXXXXXXXXXXXXXXX-|
Ab|-9----------------------XXXXXXXXXXXXXXXXXXXXX-|
Eb|-7----------------------XXXXXXXXXXXXXXXXXXXXX-|

eb|-----------------------------------|
Bb|-----------------------------------|
Gb|-111111111111111111111111111114-14-|
Db|-----------------------------------|  x4
Ab|-9-9-9-9-9-9-9-9-9-9-9-9-9-9-12-12-|
Eb|-----------------------------------|

   Break
eb|-----------------------------------|
Bb|-----------------------------------|
Gb|-111111111111111111111111111111-14-|
Db|-----------------------------------|  x4
Ab|-9-9-9-9-9-9-9-9-9-9-9-9-9-9-9--12-|
Eb|-----------------------------------|

eb|------------------------------------|
Bb|------------------------------------|
Gb|-7--7-7-7--7-7-7--7-7---------------|
Db|-7--7-7-7--7-7-7--7-7---2-2-2-------|  x4
Ab|-5--5-5-5--5-5-5--5-5---2-2-2-------|
Eb|------------------------0-0-0-------|
                       pm  : : :
eb|------------------------------------|
Bb|------------------------------------|
Gb|------------------------------------|
Db|-14--1112-14--1112-14--X-XX---2-2-2-|  x 3
Ab|-12--9-10-12--9-10-12--X-XX---2-2-2-|
Eb|-----------------------X-XX---0-0-0-|
                             pm  : : :

eb|---------------------------------------|
Bb|---------------------------------------|
Gb|---------------------------------------|
Db|-14--1112-14--1112-14--X-XX-----(5)----|
Ab|-12--9-10-12--9-10-12--X-XX--(5)---(5)-|
Eb|-----------------------X-XX------------|

| /  slide up
| \  slide down
| h  hammer-on
| p  pull-off
| ~  vibrato
| () harmonic
| x  Mute note
===============================================================================
Tap to rate this tab
# A B C D E F G H I J K L M N O P Q R S T U V W X Y Z