Song name
# A B C D E F G H I J K L M N O P Q R S T U V W X Y Z

Smashing Pumpkins - Silverfuck tab

			     silverfuck- Smashing Pumpkins
Tabbed by:
Email:DROUGE1@hotmail.com

Tuning: drop D

  intro
e|-----------------------------------------------------------------------------|
B|-----------------------------------------------------------------------------|
G|-----------------------------------------------------------------------------|
D|-----------------------------------------------------------------------------|
A |--5-----------------5-------------------------------------------------------|
E|------0--0--0--0-----------5--5--5--5--5--5--5--5----------------------------|
                             +  +  +  +  +  +  +  +

   verse
e|-----------------------------------------------------------------------------|
B|-----------------------------------------------------------------------------|
G|-----------------------------------------------------------------------------|
D|-----------------------------------------------------------------------------|
A|--5-----5--------------------------------------------------------------------|
E|----0-0------5-5-5-5-5-5-----------------------------------------------------|
               + + + + + +
   chorus
e|---------------------------------------------------------------------------|
B|---------------------------------------------------------------------------|
G|--7-7-7-7-7-7-7-7-7-7-7-7--------------------------------------------------|
D|--7-7-7-7-5-5-5-5-5-5-5-5--------------------------------------------------|
A|--5-5-5-5-5-5-5-5-5-5-5-5--------------------------------------------------|
E|----------5-5-5-5-5-5-5-5--------------------------------------------------|
   after chorus solo thing
e|-----------------------------------------------------------------------------------|
B|-----------------------------------------------------------------------------------|
G|-10-12--12-10-10--14--14-----------------------------------------------------------|
D|-x--x---x---x--x--x---x------------------------------------------------------------|
A|-9--10-10---9--9--12--12-----------------------------------------------------------|
E|-----------------------------------------------------------------------------------|

| /  slide up
| \  slide down
| h  hammer-on
| p  pull-off
| ~  vibrato
| +  harmonic
| x  Mute note
========================================================================
Tap to rate this tab
# A B C D E F G H I J K L M N O P Q R S T U V W X Y Z