Song name
# A B C D E F G H I J K L M N O P Q R S T U V W X Y Z

Smashing Pumpkins - Tonight Tonight tab

--------------------------
|Artist: Smashing Pumpkins
|Title: Tonight, Tonight
|Album:  Mellon Collie and the Infinite Sadness (1996)
|
|Tabber: Maxime Zurden (b33rbong@hotmail.com)
--------------------------

Notes
-----
Hi guys! I'm pretty excited because this is my first tab! I never bother reading the 
boring notes but I feel compelled to add that even if this song is one of the bests out 
it hasn't been tabbed for regular tuning!!?!

The song was written to be played with instruments tuned down a half-step, but can be 
well played without all the hassle of down and back up tuning, at minimal cost. Most of 
tabs are written in G and don't mention a thing about the half-step tuning.

I won't add the rythm, the note count or repeats, simply because it's easier to just 
to the song (for me and for you). I added time marks for the new riffs.

-----

Intro (play each notes for 4 measures)
E|----------|
B|----------|
G|----------|
D|--4---1---|
A|--4---1---|
E|--2-------|

(0:25)
E|--------------|
B|--------------|
G|--4---3---6---|
D|--4---3---6---|
A|--2---1---4---|
E|--------------|

(0:35)
E|------|----------------------------------------------------|
B|------|----------------------------------------------------|
G|------|------3--------3--------------3--------3------------|
D|--4---|---------4--------4-----4--------4--------4-----4---|
A|--4---|---2--------2--------2-----4--------4--------4------|
E|--2---|----------------------------------------------------|

(0:55)
E|----------------------------------------------------|
B|----------------------------------------------------|
G|------3--------3--------------3--------3--------3---|
D|---------4--------4-----4--4-----4--4-----4--4------|
A|---6--------6--------6------------------------------|
E|----------------------------------------------------|

(1:21)
E|--------------------|
B|--------------------|
G|----------------4---|
D|---4--3--1---6--4---|
A|---4--3--1---6--2---|
E|---2--1------4------|

(1:35)
E|--------------| ---------|
B|--------------| ---------|
G|--4---3---6---x3---------|
D|--4---3---6---| --1--6---|
A|--2---1---4---| --1--6---|
E|--------------| -----4---|

E|--------------|
B|--------------|
G|--4---3---6---|
D|--4---3---6---|
A|--2---1---4---|
E|--------------|

(1:54)
E|---------|
B|---------|
G|---------|
D|--4--1---|
A|--4--1---|
E|--2------|

(2:33)
E|----------------------------------------------------|
B|----------------------------------------------------|
G|------3--------3--------------3--------3------------|
D|---------4--------4-----4--------4--------4-----4---|
A|---2--------2--------2-----4--------4--------4------|
E|----------------------------------------------------|

(2:42)
E|--------------------|
B|--------------------|
G|----------------4---|
D|---4--3--1---6--4---|
A|---4--3--1---6--2---|
E|---2--1------4------|

(2:55)
E|--------------| ---------|
B|--------------x3---------|
G|--4---3---6---| ---------|
D|--4---3---6---| --2--6---|
A|--2---1---4---| --2--6---|
E|--------------| -----4---|

(3:08)
E|------------| ------------------|
B|------------| ------------------|
G|--4--3--6---| ---------------4--|
D|--4--3--6---| --4--3--2---6--4--|
A|--2--1--4---| --4--3--2---6--2--|
E|------------| --2--1------4-----|

(3:46)
E|---------|
B|---------|
G|-----4---|
D|--6--4---|
A|--6--2---|
E|--4------|

E|----------------------------------------------------|
B|----------------------------------------------------|
G|------3--------3--------------3--------3------------| x3
D|---------4--------4-----4--------4--------4-----4---|
A|---2--------2--------2-----4--------4--------4------|
E|----------------------------------------------------|

E|-------------|
B|-------------|
G|-------------|
D|---4--3--1---|
A|---4--3--1---|
E|---2--1------|

There you go! Hope it was useful for somebody. If you have any comments or wanna tell me 
much I suck at tabbing, drop me a line!
Tap to rate this tab
# A B C D E F G H I J K L M N O P Q R S T U V W X Y Z