Song name
# A B C D E F G H I J K L M N O P Q R S T U V W X Y Z

Smashing Pumpkins - Transformer tab

Help us improve GuitareTab! Take a short survey!
#


Date: Thu, 12 Dec 1996 15:03:22 -0700
From: Howard Morrill 
Subject: Transformer-Smashing Pumpkins

                                           TRANSFORMER  

  Writen by Billy Corgan, performed by 
  Smashing Pumpkins on the 33 single.

                                Tune down 1/2 step

                                        main riff

     A/---------------------------------------------------------------------
----     
     E/--2--2--2--1--0----0--2--2--2--1--0----0--2--2--2--1--0----2    


                       chorus

           A5       B5        F#5
     D/--7---7--7---9----4--4--4--4--4--4--4      (also, at the end of this
they do
     A/--7---7--7---9----4--4--4--4--4--4--4       the little 2--1--0 from
the main
     E/--5---5--5---7----2--2--2--2--2--2--2       riff, but I like playing
it like this)

    

    At the end of the first chorus hit the A5 as he says "to witness......"

    Right before the second verse you do
         
             F#5        A5             F#5
    D/--4--4--4--4--7--7--7--7--4--4--4--4--4--4--4--4
    A/--4--4--4--4--7--7--7--7--4--4--4--4--4--4--4--4
    E/--2--2--2--2--5--5--5--5--2--2--2--2--2--2--2--2

    At the end of the second chorus you do the A5 and then a B5 as he 
    says "to stomach....."

                                         Tabbed by,
                                                Benson Morrill

    


Date: Mon, 10 Feb 1997 20:25:50 -0800
From: "Michael C. Welch" 
Subject: Tab: Transformer by The Smashing Pumpkins


Verse Riff(clean guitar)
E|---------------------------------------------
B|---------------------------------------------
G|---------------------------------------------
D|-4-4-4--3--2-2--4-4-4--3--2--4-4-4--3--2--4--
A|-4-4-4--3--2-2--4-4-4--3--2--4-4-4--3--2--4--
E|-2-2-2--1--0-0--2-2-2--1--0--2-2-2--1--0--2--

Chorus(dist. guitar)
E|----------------------------------
B|----------------------------------
G|----------4-4-4-------------------   Repeat 4x
D|-7-7-7-7--4-4-4--4-4-4-4-4-4-4-4--
A|-7-7-7-7--2-2-2--4-4-4-4-4-4-4-4--
E|-5-5-5-5---------2-2-2-2-2-2-2-2--

E|-----------------------------------
B|-----------------------------------
G|------------------4-4-4-4-4-4-4-4--
D|-2-2-2-2-2-2-2-2--4-4-4-4-4-4-4-4--
A|-2-2-2-2-2-2-2-2--2-2-2-2-2-2-2-2--
E|-0-0-0-0-0-0-0-0-------------------

Pre-chorus(played once before the 2nd chorus)
E|------------------------------------------------
B|------------------------------------------------
G|----------------4-4-4-4-4-4-4-4-----------------
D|-2-2-2-2-2-2-2--4-4-4-4-4-4-4-4--4-4-4-4-4-4-4--
A|-2-2-2-2-2-2-2--2-2-2-2-2-2-2-2--4-4-4-4-4-4-4--
E|-0-0-0-0-0-0-0-------------------2-2-2-2-2-2-2--

And there it is! ok. SEND ME MAIL!!!! (mcwa@ix.netcom.com)
Related for Transformer tab