Song name
# A B C D E F G H I J K L M N O P Q R S T U V W X Y Z

Smashing Pumpkins - To Forgive tab

To Forgive – The Smashing Pumpkins

Whipped this up, as I am a big fan of the Mellon Collie album. Everything thing is 
here up to the second bridge, which I have not yet tabbed.
-Jackwc
 
Guitar I – Half-step Down (Eb Ab Db Gb Bb eb)
Guitar II – Half-step Down (Eb Ab Db Gb Bb eb)

  Guitar I
  Q  Q  Q.  E    Q  Q  Q  E E   Q  Q  Q  E E   Q  Q E E E E
|--------------|--------------|--------------|--------------|
|-----------3--|--------------|--------------|--------------|
|--------------|--------------|--------------|--------------|
|-------7------|-------2----2-|-------4----4-|------4p2-----|
|----5---------|----0-----0---|----2-----2---|----2-----5p2-|
|-3------------|-2------------|-0------------|-0------------|

  Q  Q  Q.  E    Q  Q  Q E E    Q  Q  Q E E    Q  Q E E Q
|--------------|--------------|--------------|--------------|
|-----------3--|--------------|--------------|--------------|
|--------------|--------------|--------------|--------------|
|-------7------|-------2---2--|-------4---4--|--------------|
|----5---------|----0----0----|----2----2----|----2-2p0-----|
|-3------------|-2------------|-0------------|-0--------3---|


  Guitar I
  H   E E  Q     W              H     Q  Q    +H     H        H   E E  Q
|--------------|--------------|--------------|--------------|--------------|
|--------------|--------------|--------------|--------------|--------------|
|--------------|--------------|--------------|--------------|--------------|
|--------------|--------------|--------------|--------------|--------------|
|-2---2/4--0---|--------------|--------------|--------------|-2---2/4--0---|
|--------------|--------------|-0-----2--3---|-(3)///0------|--------------|
|									   |
| Guitar II								   |
| H.       Q     Q  Q  Q  E E   W              W              H.    E  Q   |
|--------------|--------------|--------------|--------------|--------------|
|--------------|-------5----3-|--------------|--------------|-------0--0---|
|--------------|-------4----4-|--------------|--------------|--------------|
|--------------|--------------|--------------|--------------|--------------|
|-2--------0---|--------------|--------------|--------------|--------------|
|--------------|----0-----0---|--------------|--------------|--------------|


  Verse:
  Guitar I
  Q  Q  Q.  E    Q  Q  Q  Q     Q  Q  Q  E E   Q  Q  Q  E E
|--------------|--------------|--------------|--------------|
|--------------|--------------|--------------|--------------|
|--------------|--------------|--------------|--------------|
|-------5---5--|-------2------|-------4----4-|--------------|
|----5---------|----0-----0---|----2-----2---|-2--2--2--2p0-|
|-3------------|-2------------|-0------------|--------------|
|       Ten…                                   I forget…

  Q  Q  Q.  E    Q  Q  Q  Q     Q  Q  Q  E E   Q  Q  Q  E E
|--------------|--------------|--------------|--------------|
|--------------|--------------|--------------|--------------|
|--------------|--------------|--------------|--------------|
|-------5---5--|-------2------|-------4----4-|--------------|
|----5---------|----0-----0---|----2-----2---|-2--2--2--2p0-|
|-3------------|-2------------|-0------------|--------------|
| Where…                                      

  Q  Q  Q.  E    Q  Q  Q  Q     Q  Q  Q  E E   Q  Q  Q  E E
|--------------|--------------|--------------|--------------|
|--------------|--------------|--------------|--------------|
|--------------|--------------|--------------|--------------|
|-------5---5--|-------2------|-------4----4-|--------------|
|----5---------|----0-----0---|----2-----2---|-2--2--2--2p0-|
|-3------------|-2------------|-0------------|--------------|
| Bastard…

  Q  Q  Q.  E    Q  Q  Q  Q     Q  Q  Q  E E   Q  Q  Q  E E
|--------------|--------------|--------------|--------------|
|--------------|--------------|--------------|--------------|
|--------------|--------------|--------------|--------------|
|-------5---5--|-------2------|-------4----4-|--------------|
|----5---------|----0-----0---|----2-----2---|-2--2--2--2p0-|
|-3------------|-2------------|-0------------|--------------|
| A wild…


  Bridge:
  Guitar I
  H     E E Q    H  Q  Q  E E   H     Q  Q
|--------------|--------------|--------------|--------------|
|--------------|-------5----3-|--------------|--------------|
|--------------|-------4----4-|--------------|--------------|
|--------------|--------------|--------------|--------------|
|--------------|--------------|--------------|--------------|
|-7-----7/9-5--|----0-----0---|-0-----2--3---|--------------|
| Right as… 								|
|										|
| Guitar II									|
| H.        Q    Q.  E H        W              Q  Q  Q  E E |
|-----------10/|/7------------|--------------|--------------|
|--------------|--------------|--------------|-------3------|
|--------------|--------------|--------------|-------4--4---|
|--------------|--------------|--------------|----0-------0-|
|--------------|--------------|--------------|--------------|
|--------------|--------------|--------------|--------------|

  H     E E Q    Q  Q  Q  Q     H     Q  Q     W
|--------------|--------------|--------------|--------------|
|--------------|-5--5--3------|--------------|--------------|
|--------------|-4--4--4------|--------------|--------------|
|--------------|----------2---|--------------|--------------|
|--------------|--------------|--------------|--------------|
|-7-----7/9-5--|--------------|-0-----2--3---|--------------|
| But I…					…nothing.	      	|
|										|
| H.        Q    +Q.  E H                      W            |
|-----------12-|-(12)---------|--------------|--------------|
|--------------|--------------|-5-----3------|--------------|
|--------------|--------------|-4-----4--4---|--------------|
|--------------|--------------|--------------|--------------|
|--------------|--------------|--------------|--------------|
|--------------|--------------|--------------|--------------|

  Chorus:
  Guitar I
  Q  Q  Q  E E   Q  Q  Q  E E   Q  Q  Q  E E   E E Q H
|--------------|--------------|--------------|--------------|
|--------------|--------------|--------------|--------------|
|-------0--0-0-|-------2--2-2-|--------------|--------------|
|-------0--0-0-|-------0--0-0-|-------2----4-|---4----------|
|-------2--2-2-|-------0--0-0-|-------2--2---|-2---2p0------|
|-3--3--3--3-3-|-2--2--2--2-2-|-0--0--0------|--------------|
| Holding back…								|
|										|
| Guitar II									|
| Q  Q  E E Q    Q  Q  Q  E E   Q  Q  Q  E E   E E Q H      |
|--------------|--------------|--------------|--------------|
|--------------|--------------|--------------|--------------|
|--------------|--------------|--------------|--------------|
|-------5---5--|-------2----2-|-------4----4-|---4----------|
|----5----5----|----0-----0---|----2-----2---|-2---2p0------|
|-3------------|-2------------|-0------------|--------------|

  Q  Q  Q  E E   Q  Q  Q  E E   Q  Q  Q  E E   E E Q H
|--------------|--------------|--------------|--------------|
|--------------|--------------|--------------|--------------|
|-------0--0-0-|-------2--2-2-|--------------|--------------|
|-------0--0-0-|-------0--0-0-|-------2----4-|---4----------|
|-------2--2-2-|-------0--0-0-|-------2--2---|-2---2p0------|
|-3--3--3--3-3-|-2--2--2--2-2-|-0--0--0------|--------------|
| Holding back…								|
|										|
| Q  Q  E E Q    Q  Q  Q  E E   Q  Q  Q  E E   E E Q H      |
|--------------|--------------|--------------|--------------|
|--------------|--------------|--------------|--------------|
|--------------|--------------|--------------|--------------|
|-------5---5--|-------2----2-|-------4----4-|---4----------|
|----5----5----|----0-----0---|----2-----2---|-2---2p0------|
|-3------------|-2------------|-0------------|--------------|

  Q  Q  Q  E E   Q  Q  Q  E E   Q  Q  Q  E E   E E Q H
|--------------|--------------|--------------|--------------|
|--------------|--------------|--------------|--------------|
|-0--0--0--0-0-|-2--2--2--2-2-|-4--4--4--4-4-|-2--2--2--2-2-|
|-0--0--0--0-0-|-0--0--0--0-0-|-4--4--4--4-4-|-2--2--2--2-2-|
|-2--2--2--2-2-|-0--0--0--0-0-|-2--2--2--2-2-|-0--0--0--0-0-|
|-3--3--3--3-3-|-2--2--2--2-2-|--------------|--------------|
| I forget…					|
|										|
| Q  Q  E E Q    Q  Q  Q  E E   Q  Q  Q  E E   E E Q H      |
|--------------|--------------|--------------|--------------|
|--------------|--------------|--------------|--------------|
|--------------|--------------|--------------|--------------|
|-------5---5--|-------2----2-|-------4----4-|---4----------|
|----5----5----|----0-----0---|----2-----2---|-2---2p0------|
|-3------------|-2------------|-0------------|--------------|

  Q  Q  Q  E E   Q  Q  Q  E E   W              +W
|--------------|--------------|--------------|--------------|
|--------------|--------------|--------------|--------------|
|-------0--0-0-|-------2--2-2-|--------------|--------------|
|-------0--0-0-|-------0--0-0-|-2------------|-(2)----------|
|-------2--2-2-|-------0--0-0-|-2------------|-(2)----------|
|-3--3--3--3-3-|-2--2--2--2-2-|-0------------|-(0)----------|
| Holding back…								|
|										|
| Q  Q  E E Q    Q  Q  Q  E E   W              +W           |
|--------------|--------------|--------------|--------------|
|--------------|--------------|--------------|--------------|
|--------------|--------------|--------------|--------------|
|-------5---5--|-------2----2-|--------------|--------------|
|----5----5----|----0-----0---|--------------|--------------|
|-3------------|-2------------|-0------------|-(0)----------|


  Verse:
  Guitar I
  Q  Q  Q.  E    Q  Q  Q  Q     Q  Q  Q  E E   Q  Q  Q  E E
|--------------|--------------|--------------|--------------|
|--------------|--------------|--------------|--------------|
|--------------|--------------|--------------|--------------|
|-------5---5--|-------2------|-------4----4-|--------------|
|----5---------|----0-----0---|----2-----2---|-2--2--2--2p0-|
|-3------------|-2------------|-0------------|--------------|
|       I sensed…                                  Before I…

  Q  Q  Q.  E    Q  Q  Q  Q     Q  Q  Q  E E   Q  Q  Q  E E
|--------------|--------------|--------------|--------------|
|--------------|--------------|--------------|--------------|
|--------------|--------------|--------------|--------------|
|-------5---5--|-------2------|-------4----4-|--------------|
|----5---------|----0-----0---|----2-----2---|-2--2--2--2p0-|
|-3------------|-2------------|-0------------|--------------|
| Even learned…                                      

  Q  Q  Q.  E    Q  Q  Q  Q     Q  Q  Q  E E   Q  Q  Q  E E
|--------------|--------------|--------------|--------------|
|--------------|--------------|--------------|--------------|
|--------------|--------------|--------------|--------------|
|-------5---5--|-------2------|-------4----4-|--------------|
|----5---------|----0-----0---|----2-----2---|-2--2--2--2p0-|
|-3------------|-2------------|-0------------|--------------|
| And I…

  Q  Q  Q.  E    Q  Q  Q  Q     Q  Q  Q  E E   Q  Q  Q  E E
|--------------|--------------|--------------|--------------|
|--------------|--------------|--------------|--------------|
|--------------|--------------|--------------|--------------|
|-------5---5--|-------2------|-------4----4-|--------------|
|----5---------|----0-----0---|----2-----2---|-2--2--2--2p0-|
|-3------------|-2------------|-0------------|--------------|
| Empty party…


  Chorus:
  Guitar I
  Q  Q  Q  E E   Q  Q  Q  E E   Q  Q  Q  E E   E E Q H
|--------------|--------------|--------------|--------------|
|--------------|--------------|--------------|--------------|
|-------0--0-0-|-------2--2-2-|--------------|--------------|
|-------0--0-0-|-------0--0-0-|-------2----4-|---4----------|
|-------2--2-2-|-------0--0-0-|-------2--2---|-2---2p0------|
|-3--3--3--3-3-|-2--2--2--2-2-|-0--0--0------|--------------|
| Holding back…								|
|										|
| Guitar II									|
| Q  Q  E E Q    Q  Q  Q  E E   Q  Q  Q  E E   E E Q H      |
|--------------|--------------|--------------|--------------|
|--------------|--------------|--------------|--------------|
|--------------|--------------|--------------|--------------|
|-------5---5--|-------2----2-|-------4----4-|---4----------|
|----5----5----|----0-----0---|----2-----2---|-2---2p0------|
|-3------------|-2------------|-0------------|--------------|

  Q  Q  Q  E E   Q  Q  Q  E E   Q  Q  Q  E E   E E Q H
|--------------|--------------|--------------|--------------|
|--------------|--------------|--------------|--------------|
|-------0--0-0-|-------2--2-2-|--------------|--------------|
|-------0--0-0-|-------0--0-0-|-------2----4-|---4----------|
|-------2--2-2-|-------0--0-0-|-------2--2---|-2---2p0------|
|-3--3--3--3-3-|-2--2--2--2-2-|-0--0--0------|--------------|
| Holding back…								|
|										|
| Q  Q  E E Q    Q  Q  Q  E E   Q  Q  Q  E E   E E Q H      |
|--------------|--------------|--------------|--------------|
|--------------|--------------|--------------|--------------|
|--------------|--------------|--------------|--------------|
|-------5---5--|-------2----2-|-------4----4-|---4----------|
|----5----5----|----0-----0---|----2-----2---|-2---2p0------|
|-3------------|-2------------|-0------------|--------------|

  Q  Q  Q  E E   Q  Q  Q  E E   Q  Q  Q  E E   E E Q H
|--------------|--------------|--------------|--------------|
|--------------|--------------|--------------|--------------|
|-0--0--0--0-0-|-2--2--2--2-2-|-4--4--4--4-4-|-2--2--2--2-2-|
|-0--0--0--0-0-|-0--0--0--0-0-|-4--4--4--4-4-|-2--2--2--2-2-|
|-2--2--2--2-2-|-0--0--0--0-0-|-2--2--2--2-2-|-0--0--0--0-0-|
|-3--3--3--3-3-|-2--2--2--2-2-|--------------|--------------|
| I forget…							|
|								|
| Q  Q  E E Q    Q  Q  Q  E E   Q  Q  Q  E E   E E Q H      |
|--------------|--------------|--------------|--------------|
|--------------|--------------|--------------|--------------|
|--------------|--------------|--------------|--------------|
|-------5---5--|-------2----2-|-------4----4-|---4----------|
|----5----5----|----0-----0---|----2-----2---|-2---2p0------|
|-3------------|-2------------|-0------------|--------------|

  Q  Q  Q  E E   Q  Q  Q  E E   W              +W
|--------------|--------------|--------------|--------------|
|--------------|--------------|--------------|--------------|
|-------0--0-0-|-------2--2-2-|--------------|--------------|
|-------0--0-0-|-------0--0-0-|-2------------|-(2)----------|
|-------2--2-2-|-------0--0-0-|-2------------|-(2)----------|
|-3--3--3--3-3-|-2--2--2--2-2-|-0------------|-(0)----------|
| Holding back…								|
|										|
| Q  Q  E E Q    Q  Q  Q  E E   W              +W           |
|--------------|--------------|--------------|--------------|
|--------------|--------------|--------------|--------------|
|--------------|--------------|--------------|--------------|
|-------5---5--|-------2----2-|--------------|--------------|
|----5----5----|----0-----0---|--------------|--------------|
|-3------------|-2------------|-0------------|-(0)----------|

Lyrics:
Ten times removed 
I forget about where it all began 
Bastard son of a bastard son of 
A wild eyed child of the sun 

And right as rain 
I'm not the same but I feel the same 
I feel nothing 

Holding back the fool again 
Holding back the fool pretends 
I forget to forget 
Nothing is important 
Holding back the fool again 

I sensed my loss 
Before I even learned to talk 
And I remember my birthdays 
Empty party afternoons won't come back 

Holding back the fool again 
Holding back the fool pretends 
I forget to forget 
Nothing is important 
Holding back the fool again 

I forget to forget me 
I forget to forget, you see 
Nothing is important to me 

I knew my loss 
Before I even learned to speak 
And all along 
I knew it was wrong 
But I played along 
With my birthday song 

Holding back the fool again 
Holding back the fool pretends 
I forget to forget 
Nothing is important 
Holding back the fool again
Tap to rate this tab
# A B C D E F G H I J K L M N O P Q R S T U V W X Y Z