Guitaretab - guitar tabs
Song name
# A B C D E F G H I J K L M N O P Q R S T U V W X Y Z

Smashing Pumpkins - Landslide tab

Tuning: E A D G B E
***CAPO on 3rd Fret


INTRO/VERSE
                                                   x5
|----------------------------------------------------|
|-1---1---1----0---0---3-----------------0---0---3---|
|---------------------------2---0---2----------------|
|---2-------2----0-------0----2-------2----0-------0-|
|-3-----3------2-----2------0-----0------2-----2-----|
|----------------------------------------------------|

|----------------------------------------------------|
|-1---1---1----0---0---3-----------------------0-----|
|-----------0------------0--2---0---2---2---0------0-|
|---2------------0------------2-------2---2------0---|
|-3-----3------2-----2------0-----0-----0------2-----|
|----------------------------------------------------|

                                                   x5
|----------------------------------------------------|
|-1---1---1----0---0---3-----------------0---0---3---|
|---------------------------2---0---2----------------|
|---2-------2----0-------0----2-------2----0-------0-|
|-3-----3------2-----2------0-----0------2-----2-----|
|----------------------------------------------------|

|----------------------------------------------------|
|-1---1---1----0---0---3-----------------------------|
|---------------------------2---0---2----2---2---2---|
|---2-------2----0-------0----2-------2----0-------0-|
|-3-----3------2-----2------0-----0------------------|
|----------------------------------------2-----2-----|


CHORUS
|---------------------------------------------------|
|---------------------------------------------------|
|-2---2---2----2---2---2----0-------0---0-------0---|
|---0-------0----0-------0------2-----2-----2-----2-|
|-----------------------------2-----------2---------|
|-3-----3------2-----2------0-----0-----0-----0-----|

|----------------------------------------------------|
|-1---1---1----0---0---3-----------------------------|
|---------------------------2---0---2----2---2---2---|
|---2-------2----0-------0----2-------2----0-------0-|
|-3-----3------2-----2------0-----0------------------|
|----------------------------------------2-----2-----|

|---------------------------------------------------|
|---------------------------------------------------|
|-2---2---2----2---2---2----0-------0---0-------0---|
|---0-------0----0-------0------2-----2-----2-----2-|
|-----------------------------2-----------2---------|
|-3-----3------2-----2------0-----0-----0-----0-----|

|----------------------------------------------------|
|-1---1---1----0---0---3-----------------0---0---3---|
|---------------------------2---0---2----------------|
|---2-------2----0-------0----2-------2----0-------0-|
|-3-----3------2-----2------0-----0------2-----2-----|
|----------------------------------------------------|


SOLO
[ Tab from: http://www.guitaretab.com/s/smashing-pumpkins/17558.html ]
 Rhythm                                            x3
|----------------------------------------------------|
|-1---1---1----0---0---3-----------------0---0---3---|
|---------------------------2---0---2----------------|
|---2-------2----0-------0----2-------2----0-------0-|
|-3-----3------2-----2------0-----0------2-----2-----|
|----------------------------------------------------|

|----------------------------------------------------|
|-1---1---1----0---0---3-----------------------------|
|---------------------------2---0---2----2---2---2---|
|---2-------2----0-------0----2-------2----0-------0-|
|-3-----3------2-----2------0-----0------------------|
|----------------------------------------2-----2-----|


 Lead - These are the actual frets (not in relation to the capo)
|-------------------------------------------------------------------
|-8h9p8\6-6/8-----------------------8-------------------------------
|----------------8p7----7h8/10--------7-8-8/10----11r10-8p7-8p7-----
|--------------------10----------/8-----------------------------8-10
|-------------------------------------------------------------------
|-------------------------------------------------------------------

 -------------------------------------------------------------------
 -------------------------------------------------------------------
 -------------------------------------------------------------------
 -----------------------------------------------------------------7-
 -8-10-11-10-8-10-8---8b9r8----------------/10-8-10-11-10-11-8-10---
 ---------------------------11-10-11-10-11--------------------------

 -------------------------|
 -------------------------|
 -------------------------|
 -8-7----7-----------*15*-| <-harmonic
 -----10---10-8-10-8------|
 -------------------------|


CHORUS 2
|---------------------------------------------------|
|---------------------------------------------------|
|-2---2---2----2---2---2----0-------0---0-------0---|
|---0-------0----0-------0------2-----2-----2-----2-|
|-----------------------------2-----------2---------|
|-3-----3------2-----2------0-----0-----0-----0-----|

|----------------------------------------------------|
|-1---1---1----0---0---3-----------------------------|
|---------------------------2---0---2----2---2---2---|
|---2-------2----0-------0----2-------2----0-------0-|
|-3-----3------2-----2------0-----0------------------|
|----------------------------------------2-----2-----|

|---------------------------------------------------|
|---------------------------------------------------|
|-2---2---2----2---2---2----0-------0---0-------0---|
|---0-------0----0-------0------2-----2-----2-----2-|
|-----------------------------2-----------2---------|
|-3-----3------2-----2------0-----0-----0-----0-----|

|----------------------------------------------------|
|-1---1---1----0---0---3-----------------0---0---3---|
|---------------------------2---0---2----------------|
|---2-------2----0-------0----2-------2----0-------0-|
|-3-----3------2-----2------0-----0------2-----2-----|
|----------------------------------------------------|


OUTRO
                                                   x8
|----------------------------------------------------|
|-1---1---1----0---0---3-----------------0---0---3---|
|---------------------------2---0---2----------------|
|---2-------2----0-------0----2-------2----0-------0-|
|-3-----3------2-----2------0-----0------2-----2-----|
|----------------------------------------------------|

End on
|--------|
|--1-----|
|--0-----|
|--2-----|
|--3-----|
|--------|
Related for Landslide tab
Landslide chords by Smashing Pumpkins