Guitaretab - guitar tabs
Song name
# A B C D E F G H I J K L M N O P Q R S T U V W X Y Z

Smashing Pumpkins - Cherub Rock tab

Artist: The Smashing Pumpkins
Song: Cherub Rock
Tuning: Standard


Intro

e|----------------------------|--------------------------------------|
B|----------------------------|--------------------------------------|
G|--9-9---9-9---9-9---9-9-9---|--13-13---13-13---13-13-13---13-13-13-|
D|----------------------------|--------------------------------------|
A|--7-7---7-7---7-7---7-7-7---|--11-11---11-11---11-11-11---11-11-11-|
E|0-----0-----0-----0-------0-|0-------0-------0----------0----------|


e|-------------------------------------------------------------------|
B|-------------------------------------------------------------------|
G|--16-16---16-16---16-16-16---16-16-16------------------------------|
D|-------------------------------------------------------------------|
A|--14-14---14-14---14-14-14---14-14-14------------------------------|
E|0-------0-------0----------0---------------------------------------|


Gtr 1                           Gtr 2
e|-----------------------------|-------------------------------------|
B|-----------------------------|-------------------------------------|
G|11/9-----13/14---13-----11/9-|-------------------------------------|
D|-----------------------------|-------------------------------------|
A|-----------------------------|9/7-----11/12---11-----9/7-----------|
E|-----0-0-------0----0-0------|----0-0-------0----0-0---------------|


Gtrs 1,2 
e|------------------------|------------------------------------------|
B|--------2-2--2---0h2----|------------------------------------------|
G|-7-7/2--2-2--2-2---2----|------------------------------------------|
D|-7-7/2--2-2--2-2---2--9-|------------------------------------------|
A|-5-5/0--0------0---0--7-|------------------------------------------|
E|----------------------0-|------------------------------------------|

Verse Riff
Gtr 1                       Gtr 2
e|-------------------------|-----------------------------------------|
B|-------------------------|-----------------------------------------|
G|-13-----13/14---13----11-|-----------------------------------------|
D|-------------------------|-----------------------------------------|
A|-------------------------|-11-----11/12---11-----9-----------------|
E|----0-0-------0----0-0---|----0-0-------0----0-0-------------------|

Pre-chorus

e|--------------------------|----------------------------------------|
B|--------------------------|----------0--0-0-0---0------------------|
G|---------2--2-2-2-2-------|0-0-0-0-0-0--0-0-0-0-0------------------|
D|-4-4-4/2-2--2-2-2-2-2-2---|2-2-2-2-0-0--0-0-0-0-0------------------|
A|-5-5-5/0-4--4-4-4-4-0-0-2-|3-3-3-3-2-2----2---2--------------------|
E|--------------------------|--------3-3----3---3---3/0--------------|

Chorus

                                         x2
e|--------------------|----------------------------------------------|
B|-3------------------|-----------0-0-----0-----3--------------------|
G|-2--2-2-2-2-2-2-----|-0-0-0-0-0-0-0-0-0-0-----2--2-2-2-2-2-2-------|
D|-0--2-2-2-2-2-2-----|-2-2-2-2-0-0-0-0-0-0---0-0--2-2-2-2-2-2-------|
A|----4-4-4-4-4-4-0-2-|-3-3-3-3-2-2---2-2-2---0----4-4-4-4-4-4-0-2---|
E|--------------------|---------3-3---3---3/5------------------------|

Bridge

e|----------------------2--------------------------------------------|
B|-0-0-0----------------3-3-3--2-------------------------------------|
G|-1-1-1-1-1-1-1--1-1-1-2-2-2--2-2--0-0-0-0-0-0----------------------|
D|-2-2-2-2-2-2-2--2-2-2-0-0-0--2-2--2-2-2-0-0-0-2-2------------------|
A|-2-2-2-2-2-2-2--2-2-2--------0-0--3-3-3-------2-2------------------|
E|-0-0-0-0-0-0-0--0-0-0-------------------3-3-3-0-0------------------|

Guitar Solo

e|12-----------------------19b(21)-19v---17-19-19p16-17p16-----------|
B|15b(17)-----19--17-19-17-------------x-------------------17-17b(19)|
G|----------0--------------------------x-----------------------------|
D|--------0----------------------------------------------------------|
A|-------------------------------------------------------------------|
E|-------------------------------------------------------------------|


e|-----------------------------10p7----------------------------------|
B|17v/14-15-15v---------------------9p7h9p7-7\5-7/9-7b(9)------------|
G|-------------------------------------------------------------------|
D|-------------14/0----------x----------------------------x----------|
A|-------------------------x------------------------------x----------|
E|------------------9b(10)----------------------------------x-x------|

e|-------------------------------------------------------------------|
B|-------------------------------------------------------------------|
G|--------------------------------------------------9/11b(12)-11-----|
D|-11b(13)r11v-----11-9----------------------------------------------|
A|--------------11------11-9-7-9b(11)-11-9--7-7-9/11-----------------|
E|-------------------------------------------------------------------|


e|-------------------------------------------------------------------|
B|------------------------------------8-7-------------------10-10v---|
G|---------------------------7b(9)r7v-----7v---2h4---7(9)r7----------|
D|-12v/7----7v-------------------------------------------------------|
A|-------------------------------------------------0-----------------|
E|-------------------------------------------------------------------|



[ Tab from: http://www.guitaretab.com/s/smashing-pumpkins/24513.html ]
Related for Cherub Rock tab
Cherub Rock chords by Smashing Pumpkins