Song name
# A B C D E F G H I J K L M N O P Q R S T U V W X Y Z

Smashing Pumpkins - The End Is The Beginning Is The End tab

Highlighted       Show chord diagrams
The End Is The Beginning Is The End" by the Smashing Pumpkins, more in the style of 
their instrumental version "Ethers Tragic".

Here are the rough Chords and tabs - you can see how I play it at: http://
www.youtube.com/watch?v=JeYDSahEZ-k

Am C#m
Send a heartbeat to
Am C#m
The void that cries through you
Am C#m G#m
Relive the pictures that have come to pass

Am C#m
For now we stand alone
Am C#m
The world is lost and blown
Am C#m Am* Cm* Am* Cm* E
And we are flesh and blood disintegrate with no more to hate


Bm(pick1) F#m(pick)
Is it bright where you are, have the people changed?
E (pick) Bm(pick2) F#m
Does it make you happy you're so strange?
Bm(pick1) F#m(pick)
And in your darkest hour I hold secrets flame
E (pick) Bm(pick2) F#m
We can watch the world devoured in its pain


Delivered from the blast
The last of a line of lasts
The pale princess of a palace cracked
And now the kingdom comes
Crashing down undone
And I am a master of a nothing place, of recoil and grace

Chorus

Time has stopped before us
The sky cannot ignore us
No one can separate us
For we are all that is left
The echo bounces off me
The shadow lost beside me
There's no more need to pretend
Cause now I can begin again

Bm(pick1) - strum Bm, then pick
-2--2--2--------0----2-----|
----------3----------------|
---------------------------|
---------------------------|
---------------------------|
---------------------------|

Fm(pick) - strum Fm then pick
-5----4----5----4------2----|
----------------------------|
----------------------------|
----------------------------|
----------------------------|
----------------------------|

E(pick) - strum E, then pick
-4----4----5----4-----2----0-|
-----------------------------|
-----------------------------|
-----------------------------|
-----------------------------|
-----------------------------|

Bm(pick2) - strum Bm, then pick
----------------------|
--3----2----3----2----|
----------------------|
----------------------|
----------------------|
----------------------|


Originally written for the soundtrack of Batman and Robin but used on the trailer for Watchmen.
Tap to rate this tab
 
# A B C D E F G H I J K L M N O P Q R S T U V W X Y Z