Song name
# A B C D E F G H I J K L M N O P Q R S T U V W X Y Z

Smashing Pumpkins - Pug tab

Song: Pug
Album: Adore
Band: Smashing Pumpkins

This be me first tab, so be gentle


INTRO/VERSE

E-----4-----4-----4-----4--|
B--------------------------|
G--------------------------|
D--------------------------|
A-------0-0---------2-2----|
E-2-2---------4-4----------|

E-----4-----4-----4-----4--|
B--------------------------|
G--------------------------|
D-------2-2---1-1----------|
A-4-4---------------2-2----|
E--------------------------|

CHORUS

E--------------------------|
B--------------------------|
G--------------------------|
D-2------------------------|
A-2-(let ring)---2----1----|
E-0----------------------2-|
  inside      where its warm

E--------------------------|
B--------------------------|
G--------------------------|
D--------------------------|
A--------------------1-2---|
E----6b7-----------2-----0-|
  wrap myself in you


RIFF AFTER FIRST CHORUS

E--------------------------|
B--------------------------|
G-11-9---9-8---8-6---6-----|
D----------------------6---|
A--------------------------|
E--------------------------|

INTERLUDE

E--------------------------|
B--------------------------|
G--6-----------------------|
D--6----(strum)----4-------|
A--4---------------4-------|
E------------------2-------|


Peace

   -Ken
Tap to rate this tab
# A B C D E F G H I J K L M N O P Q R S T U V W X Y Z