Song name
# A B C D E F G H I J K L M N O P Q R S T U V W X Y Z

Smile Empty Soul - Self Inflicted tab

-------------------------------------------------------------------------------
                             Self Inflicted - Smile Empty Soul
-------------------------------------------------------------------------------
Tabbed by: wallinman78

Tuning: Drop C#

              Here are the chords but you have to figure out the strumming pattern on your own


Intro Clean First Then Distorted 

E|---------------------------------------------------------------------------|
B|--3---------10-------------------------------------------------------------|
g|--2----3----x----12--------------------------------------------------------|
d|--0----1----8----10--------------------------------------------------------|
a|--0----1----8----10--------------------------------------------------------|
E|--0----1----8----10--------------------------------------------------------|

Pre Chorus 

e|---------------------------------------------------------------------------|
B|--------3-----------3-----------3------------3-----------------------------|
G|-----------2-----------2-----------0------------0--------------------------|
D|---------------------------------------------------------------------------|
A|--------------------------1--1--------3--3---------------------------------|
E|--0--0--------1--1---------------------------------------------------------|

Chorus

e|---------------------------------------------------------------------------|
B|--3------------------------------------------------------------------------|
g|--2---5---3---5---5---3---2------------------------------------------------|
d|--0---5---3---3---5---3---2------------------------------------------------|
a|--0---3---1---3---3---1---0------------------------------------------------|
E|--0-----------3-------3---2------------------------------------------------|

Breakdown

e|---0---0-------------------------------------------------------------------|
B|---3---3-------------------------------------------------------------------|
g|---2---0---5---5-----------------------------------------------------------|
d|---0---0---3---5-----------------------------------------------------------|
a|---0---3---3---5-----------------------------------------------------------|
E|---0-------3---5-----------------------------------------------------------|





************************************

| /   slide up
| \   slide down
| h   hammer-on
| p   pull-off
| ~   vibrato
| +   harmonic
| x   Mute note
| b   Bend
| pb  Pre-bend
| br  Bend release
| pbr Pre-bend release
| brb Bend release bend

************************************
Tap to rate this tab
# A B C D E F G H I J K L M N O P Q R S T U V W X Y Z