Song name
# A B C D E F G H I J K L M N O P Q R S T U V W X Y Z

Smith Elliott - Say Yes tab

----------------------------------------------------------------------------------------
			     Say Yes - Elliott Smith
----------------------------------------------------------------------------------------
Tabbed by: F# 11th w3


Tuning: Full step down.


This tab has 2 purposes. First to correct the wrongly tabbed chords in most other tabs.
And second to give a suggestion on how to play the 1st and 2nd guitar parts on ONE
guitar. If you want the exact tabs for both guitars separate than I suggest to use the
power tab version here on UG, which is 100% correct. Read further to become the campfire
hero, :-)

For the solo, bridge 1 and 2 I put a link to YouTube where you can see how I play them
myself, might the tab not be clear enough.


Verse 1:

Note that the last chord A7 has a few extra strums. The tabbed notes are exactly what
Elliott plays, but you can play it in your own way, doesn't really matter as long as you
keep the right rhythm. You could use the same strums for every chord  (the same
for every verse actually), but I'm to lazy to tab that out.

   G       Gmaj7   Em      D       C       Em7     A7          A7
e|-----3-|-----3-|-----0-|-----2-|-----0-|-----0-|-----0---0-|-----0---0-------|
B|-----3-|-----3-|-----0-|-----3-|-----1-|-----0-|-----2-2---|-----2-2---2-----|
G|-----0-|-----0-|-----0-|-----2-|-----0-|-----0-|-----0-0---|-----0-0---0-----|
D|-----0-|-----0-|-----2-|-0-0---|-----2-|-----0-|-----2-----|-----2-----------|
A|-----x-|-----x-|-----2-|-x-----|-3-3---|-2-2---|-0-0-------|-0-0-------------|
E|-3-3---|-2-2---|-0-0---|-x-----|-x-----|-x-----|-x-x-------|-x-x-------------|


G         Gmaj7         Em
   I'm in love with the world
            D         C     
Through the eyes of a girl
             Em7               A7
Who's still around the morning after


Verse 2:

Here I altered a few things. The 1st guitar plays the same as verse 1. The 2nd guitar
comes in and plays a few high notes on the e-string. So with only one guitar you could
play it like this.

   G       Gmaj7   Em      D          C        Em7     A7          A7
e|-----3-|-----7-|-----7-|-------10-|-----8--|-----7-|-----5---5-|-----5---5---|
B|-----3-|-----8-|-----8-|-------10-|-----8--|-----8-|-----5-5---|-----5-5---5-|
G|-----4-|-----7-|-----9-|-------11-|-----9--|-----7-|-----6-6---|-----6-6---6-|
D|-----5-|-----9-|-----9-|-------12-|-----10-|-----9-|-----5-----|-----5-------|
A|-----5-|-9-9---|-7-7---|-------12-|-----10-|-----x-|-----7-----|-----7-------|
E|-3-3---|-x-----|-x-----|-10-10----|-8-8----|-7-7---|-5-5-------|-5-5---------|


G           Gmaj7       Em
   We broke up a month ago
       D           C
I grew up I didn't know
        Em7               A7
I'd be around the morning after


Intermezzo/solo:

1st Guitar plays the chords as in verse 1, 2nd guitar plays the solo. I tried to combine
both guitars in something playable for one guitar. This means that some notes are an
octave lower than the 2nd guitar plays them.

You'll have to figure out the rhythm yourself here. To make it more clear I put an
asterix (*) next to the notes that should coincide with the bass strokes of the 1st
guitar. When you put the right accent on the notes of the solo and keep the rhythm
correct at the same time then it sounds great. Practise required!

e|---3-------------------------------------------------------------------------|
B|---0--------0----------------------0--1-1/3*---3-----------------------------|
G|---0--0--2--2/4*-----4--2p0--------0-----------2--4--2p0--------0h2----------|
D|---0--0-----------0-----0---2*---------------0----0---------0h2--------------|
A|---x-----------------------------2-----------------------3*------------------|
E|-3*-------------2--------------0---------------------------------------------|

e|-x--------------------5/------------------------------|
B|-0--0---0-------------5/---8h10---10-----10p8---------|
G|-0--0-0-0--2p0--------6/---9------9----9-9------------|
D|-0-------------5*h7---7/---7----7----7----------------|
A|-2*-------------------7/---7*-------------------------|
E|-x------------------5---5-x---------------------------|

=================================================================================
Watch this solo (+ verse3) on YouTube: http://www.youtube.com/watch?v=cuSqlUnWr5k
=================================================================================


Verse 3:

The same as verse 2 with only one difference at the end on the A7 chords. There you can
play something similar as the end of the solo:

e|-----5-------------------------|
B|-----5----8h10---10----10p8----|
G|-----6----9------9-----9-------|
D|-----5----7----7-----7---------|
A|-----7----7*-------------------|
E|-5-5---5--x--------------------|


Verse 4:

The same as verse 3. 


Bridge 1:


C      D                 Em
  Situtations get fucked up
            G               A7           C
But turned around sooner or laaaaa...    ter...


Here I will combine the simple chords of the 1st guitar again with the 2nd guitar high
notes. The chords above the tab are there to indicate the rhythm, since the rhythm of
the chords is easy to hear in the song (Em is not played in my version, although 1st
guitar does play it). So you'll know where and how fast the notes must be played.

  C         D              Em                G           A7
e|-----0--|--------------|-10-10--8--7--5\-|-3-----3---|-----5p3---3-----5-3---|
B|-----5/-|-7-7-7-7-7----|-12-12--8--8--7--|---------0-|-----2---5---2---2-2---|
G|-----5/-|-7-7-7-7-7--5-|-12-12--9--7--7--|---0-------|-----2---------2-------|
D|-----5/-|-7-7-7-7-7--5-|-0------x--x--x--|-----0-----|---2-------------------|
A|-3-3----|-x-x-x-x-x--7-|-x---------------|-x---------|-0---------------------|
E|-x-x----|------------x-|-x---------------|-x---------|-x---------------------|

   C
e|---------------------8-7-------------|
B|------8------8-------8-8---10--------|
G|--------9------9---------------------|
D|----------10-----10------0-----------|
A|---10--------------------------------|
E|-8-----------------------------------|

=========================================================================
Watch this bridge1 on YouTube: http://www.youtube.com/watch?v=PRSplylWjf8
=========================================================================

Verse 5:

The same as verses 3&4.


Bridge 2:


G         Gaug5              Em
  Crooked spin can't come to rest
    F9/5flat    Em
I'm damaged bad at best
         G             C
She'll decide what she wants

G               Gaug5          Em 
  I'll probably be the last to know
       F9/5flat      Em
No one says until it shows
            G      Am
And you see how it iiiiiiiis...

     G        F       Em       Cm
They want you or they don't...     
    G
Say yes...


The word 'yes' dissolves into verse 6 which of course starts with the G chord again.

In this part there is mainly one guitar so this is not too difficult. Over the C
chord and the Am chord there are some notes from the 2nd guitar which I combined 
again. The same for the last G and F chords.


   G           Gaug5       Em          F9/5flat    Em          G
e|-----3---3-|-----3---3-|-----3---3-|-----3---3-|-----3---3-|-----3---3-------|
B|-----0---0-|-----0---0-|-----0---0-|-----0---0-|-----0---0-|-----0---0-------|
G|-----0---0-|---0-----0-|-----0---0-|-----0---0-|-----0---0-|---0-----0-------|
D|---0---0---|-1-----1---|-------2---|---3---3---|-------2---|-0-----0---------|
A|---x-------|-x---------|---2-------|-x---------|---2-------|-x---------------|
E|-3---------|-x---------|-0---------|-3---------|-0---------|-x---------------|

   C                         G           Gaug5       Em          F9/5flat
e|---------------------8--7-|-----3---3-|-----3---3-|-----3---3-|-----3---3----|
B|------8------8-------8--8-|-----0---0-|-----0---0-|-----0---0-|-----0---0----|
G|--------9------9----------|-----0---0-|---0-----0-|-----0---0-|-----0---0----|
D|----------10-----10-------|---0---0---|-1-----1---|-------2---|---3---3------|
A|---10---------------------|---x-------|-x---------|---2-------|-x------------|
E|-8------------------------|-3---------|-x---------|-0---------|-3------------|

   Em          G           Am                                G      F
e|-----3---3-|-----3---3-|-7h8-7h8-7h8-7h8-7h8-7h8-7h8-7h8-|-7-5--|-5-3--------|
B|-----0---0-|-----0---0-|-5---5---5---5---5---5---5---5---|-8-8--|-6-6--------|
G|-----0---0-|---0-----0-|-5-------------------------------|-7-7--|-5-5--------|
D|-------2---|-0-----0---|-7-------------------------------|-5----|-3----------|
A|---2-------|-x---------|-0-------------------------------|-x----|-x----------|
E|-0---------|-x---------|-x-------------------------------|-x----|-x----------|

   Em         Cm
e|-3--------|-8--------|
B|-0------0-|-8--------|
G|-0----0---|-8--------|
D|-2--2-----|-10-------|
A|-2--------|-10-------|
E|-0--------|-8--------|

=========================================================================
Watch this bridge2 on YouTube: http://www.youtube.com/watch?v=sRO63U5LEvA
=========================================================================

Verse 6:

The same as verses 3-5. It ends with one stroke on the complete A7 chord on the 5th
fret.


========================================================================================
So that's it. This is my first tab, hope you all have fun with it. Will try to do some
more tabbing when I find the time. Any comments or suggestions welcome.
Tap to rate this tab
# A B C D E F G H I J K L M N O P Q R S T U V W X Y Z