Song name
# A B C D E F G H I J K L M N O P Q R S T U V W X Y Z

Smiths - I Know Its Over tab

 

Gtr I (E A D G) - 'Bass'

 Verse 1
  Q.=70         H=H
 12/8
  Gtr I
  W.              Q  E q  E q  E q  E   q  E q  E Q  E Q  E
|---------------|---------------------|---------------------|
|---------------|---------------------|---------------------|
|---------------|-3----3----3----3----|-3----3----3---------|
|---------------|----3----3----3----3-|----3----3----3-0--3-|


  q  E q  E q  E q  E   q  E Q  E Q.   Q.
|---------------------|----------------------|
|---------------------|----------------------|
|-0----0----0----0----|-0----0---------------|
|----0----0----0----0-|----0----3-1----3-----|


  q  E q  E q  E q  E   q  E q  E Q  E Q  E
|---------------------|---------------------|
|---------------------|---------------------|
|-3----3----3----3----|-3----3----3---------|
|----3----3----3----3-|----3----3----3-0--3-|


  q  E q  E q  E Q  E   q  E Q  E Q.   Q.
|-------------------0-|----------------------|
|----------------2----|----------------------|
|-0----0----0--0------|-0----0---------------|
|----0----0-----------|----0----0-1----3-----|


 Chorus
  Q  E Q  E Q  E E E E   Q  E E E E Q.   E S S E
|----------------------|-------------------------|
|---------3----------0-|----------3------------0-|
|------------------2---|-------------------0h2---|
|-1--1-1----3--3-3-----|-1--1-1-1---3----3-------|


  Q  E E S S E Q.   S S E E   Q.   E E E Q.   Q.
|---------------------------|----------------------|
|---------------------------|----------------------|
|---------------------------|----------------------|
|-1--1-1-0h1-1-1----0h1-1-1-|-3----3-3-3-1----3----|


   Verse 2
    h    E E q.   Q  E   h    E E Q.   Q.
||---------------------|--------------------|
||o--------------------|--------------------|
||o-3--------3---------|-3--------3----2----|
||-------0-3---------3-|--------3-----------|


                      1.                     2.
  h    E E q.   Q  E   h    E E Q.   Q.       h    E E Q.   Q.
|--------------------|--------2------------||--------------------|
|--------------------|------2-------------o||--------------------|
|-0--------0---------|-0------------------o||-0------------------|
|------0-3---------3-|----------1----3-----||--------3-1----3----|


   Verse 3
    h    E E q.   Q  E   h    E E Q.   Q.     h    E E h    E E
||---------------------|--------------------|-------------------|
||o--------------------|--------------------|-------------------|
||o-3----0---3---------|-3--------3----2----|-0--------0--------|
||---------3---------3-|------0-3-----------|------0-3------0-3-|


 1.                     2.
  h    E E Q.   Q.       Q  E E E E E E E E E E
|---------------------||----2-----0-------------|
|--------------------o||--------2-------3-----5-|
|-0------0-----------o||-0----0-------3-----5---|
|------3---1----3-----||------------1-----3-----|


 Chorus
  Q  E E E E Q  E E E E   Q  E E E E Q  E E E E
|-----------------------|-----------------------|
|---------------------0-|-----------------------|
|-------------------2---|-------------------0-2-|
|-1--1-1-0-1-3--3-3-----|-1--1-1-0-1-3--3-3-----|


  E E E E E e E E E E E e   Q.   E E E Q.   Q.
|-------------------------|-----------------------|
|-------------------------|----------5------------|
|-------------------------|--------5--------------|
|-1-1-1-1-0-1-1-1-1-1-0-1-|-3----3-----1----3-----|


 Interlude
  Q  E E E E Q  E E E E   Q  E E E E Q  E Q.
|----------0------------|----------------------|
|--------2--------------|----------0-----------|
|-3--3-3----------------|--------2-------------|
|------------1--1-1-0-1-|-3--3-3-----1--1-3----|


  Q  E E E E Q  E E E E   Q.   E E E E E E E E E
|-----------------------|---------------------------|
|----------2------------|----------0-----3-----5----|
|-0--0-0-3--------------|--------2-----3-----5------|
|------------1--1-1-0-1-|-3----3-----1-----3--------|


   Verse 4
    Q  E E E E Q.   Q  E   E +Q   Q  E Q.   Q.
||-----------------------|-----------------------|
||o----------------------|-----------------------|
||o-3--3-3---------------|-------------3----2----|
||---------0-3-8----8--8-|-8-(8)s=0--0-----------|


  H    E E H    +E  E   H    E E Q  E Q.
|---------------------|---------------------|
|---------------------|---------------------|
|-0--------0----(0)-0-|-0----0--------------|
|------0-3------------|--------3-1--1-3-----|


  Q  E E E E Q.   Q  E   E +Q   Q  E Q.   Q.     H    E E Q   E   E   E   E
|----------------------|-----------------------|-------------(2)-(2)-(2)-(2)-|
|----------------------|-----------------------|-----------------------------|
|-3--3-3---------------|-------------3----2----|-0--------0------------------|
|--------0-3-8----8--8-|-8-(8)s=0--0-----------|------0-3--------------------|


 1.,2.                    3.
  H    +E  E Q  E Q.    3x Q  E E E E E E E E E E
|-----------------------||----2-----0--------------|
|----------------------o||--------2-------3-----5--|
|-0----(0)-------------o||-0----0-------3-----5----|
|----------0-1--0-3-----||------------1-----3------|


 Chorus
  q  E Q  E Q  E E E E   Q.   E E E Q.   E E E
|----------------------|-----------------------|
|---------3----------0-|---------------------0-|
|------------------2---|-------------------2---|
|-1--1-1----3--3-3-----|-1----1-1-1-3----3-----|


  E E E E E e E E E E E e   Q.   E E E Q.   Q.
|-------------------------|-----------------------|
|-------------------------|----------5------------|
|-------------------------|--------5--------------|
|-1-1-1-1-0-1-1-1-1-1-0-1-|-3----3-----1----3-----|


   Out-Chorus
    Q  E E E E Q  E E E E   Q  E E E E Q  E Q.
||-----------0------------|----------------------|
||o--------2--------------|----------0-----------|
||o-3--3-3----------------|--------2-------------|
||-------------1--1-1-0-1-|-3--3-3-----1--1-3----|


  Q  E E E E Q  E E E E   Q.   E E E E E E E E E
|-----------------------|---------------------------|
|----------2------------|----------0-----3-----5----|
|-0--0-0-3--------------|--------2-----3-----5------|
|------------1--1-1-0-1-|-3----3-----1-----3--------|


  1.,2.,3.,4.
  Q  E E E E Q  E E E E   Q  E E E E Q  E Q.
|----------0------------|----------------------|
|--------2--------------|----------0-----------|
|-3--3-3----------------|--------2-------------|
|------------1--1-1-0-1-|-3--3-3-----1--1-3----|


  Q  E E E E Q  E E E E   Q  E E E E Q.   E E E     5x
|-----------------------|---------------------------||
|-----------------------|--------------------------o||
|--------0-2--------0-2-|-------------------0-2----o||
|-0--0-0-----0--0-0-----|-1--1-1-1-1-3----3---------||


 Fade
  5.
  Q  E E E E Q  E E E E   Q  E E E E Q  E Q.     Q  E E E E Q  E E E E
|----------0------------|----------------------|-----------------------|
|--------2--------------|----------0-----------|-----------------------|
|-3--3-3----------------|--------2-------------|--------0-2--------0-2-|
|------------1--1-1-0-1-|-3--3-3-----1--1-3----|-0--0-0-----0--0-0-----|


                        Q.=76
  Q  E E E E Q.   E E E    Q  E E E E Q  E E E E
|-----------------------||----------0-------------*|
|-----------------------||--------2---------------*|
|-------------------0-2-||-3--3-3-----------------*|
|-1--1-1-1-1-3----3-----||------------1--1-1-0-1--*|


Duration Legend
---------------
W - whole; H - half; Q - quarter; E - 8th; S - 16th; T - 32nd; X - 64th; a - acciaccatura
+ - note tied to previous; . - note dotted; .. - note double dotted
Uncapitalized letters represent notes that are staccato (1/2 duration)
Irregular groupings are notated above the duration line
Duration letters will always appear directly above the note/fret number it represents the
duration for.  Duration letters with no fret number below them represent rests.  Multi-
bar rests are notated in the form Wxn, where n is the number of bars to rest for.  Low
melody durations appear below the staff

Tablature Legend
----------------
 h   - hammer-on
 p   - pull-off
 b   - bend
 pb  - pre-bend
 r   - bend release (if no number after the r, then release immediately)
 /\  - slide into or out of (from/to "nowhere")
 s   - legato slide
 S   - shift slide
  - natural harmonic
[n]  - artificial harmonic
n(n) - tapped harmonic
 ~   - vibrato
 tr  - trill
 T   - tap
 TP  - trem. picking
 PM  - palm muting
\n/  - tremolo bar dip; n = amount to dip
 \n  - tremolo bar down
 n/  - tremolo bar up
/n\  - tremolo bar inverted dip
 =   - hold bend; also acts as connecting device for hammers/pulls
 <>  - volume swell (louder/softer)
 x   - on rhythm slash represents muted slash
 o   - on rhythm slash represents single note slash

Misc Legend
-----------
 |  - bar
||  - double bar
||o - repeat start
o|| - repeat end
*|  - double bar (ending)
 :  - bar (freetime)
 $  - Segno
 &  - Coda
Tap to rate this tab
 
# A B C D E F G H I J K L M N O P Q R S T U V W X Y Z