Song name
# A B C D E F G H I J K L M N O P Q R S T U V W X Y Z

Smoke Or Fire - Second Wind tab

--------------------------------------------------------------------------
                        SECOND WIND - jericho {rva}
--------------------------------------------------------------------------

Band: Jericho {RVA} (Now Smoke or Fire)
Album: Worker's Union (2003, Iodine Recordings)
Song: Second Wind

Tabbed by Kyle T.
Contact: pants_me@hotmail.com
Site: www.wqhosting.com/~ohpkyle/

Standard tuning (EADGbe)

Legend:

pm... - Palm mute
  x   - Dead note
  ~   - Let ring
  %   - Rest
  /   - Slide up
  \   - Slide down
  h   - hammer on

Chords used:

    D5  B5  A5  G5  E5  F#5  G5ii A5ii
e|------------------------------------|
b|------------------------------------|
G|--7---4-----------9---11---12---14--|
D|--7---4---7---5---9---11---12---14--|
A|--5---2---7---5---7----9---10---12--|
E|----------5---3---------------------|

---

Note: The last 3 chords in the chords used list will be shown
on the next string down for the sake of alignment and ease of
reading. In cases where that can't be avoided, 't' stands for
10.

Another hour and a half of essay writing tossed away.

---


Intro (0:00-0:15):

 [Guitar 1]
 (Strumming not exact)
e|-----------------|-----------------|-----------------|-----------------|
b|-----------------|-----------------|-----------------|-----------------|
G|-7-7--7-7-7-7--7-|-7-7-7-7--7-7-7-7|-4-4--4-4-4-4--4-|-4-4-4-4--4-4-4-4|
D|-7-7--7-7-7-7--7-|-7-7-7-7--7-7-7-7|-4-4--4-4-4-4--4-|-4-4-4-4--4-4-4-4|
A|-5-5--5-5-5-5--5-|-5-5-5-5--5-5-5-5|-2-2--2-2-2-2--2-|-2-2-2-2--2-2-2-2|
E|-----------------|-----------------|-----------------|-----------------|
 |                                                                       |
 [Guitar 2]                                                              |
e|-----------------|-----------------|-----------------|-----------------|
b|-----------------|-----------------|-----------------|-----------------|
G|-----------------|-----------------|-----------------|-----------------|
D|--------%--------|--------%--------|--------%--------|--------%--------|
A|-----------------|-----------------|-----------------|-----------------|
E|-----------------|-----------------|-----------------|-----------------|


e|-----------------|-----------------|-----------------|-----------------|
b|-----------------|-----------------|-----------------|-----------------|
G|-7-7--7-7-7-7--7-|-7-7-7-7--7-7-7-7|-4-4--4-4-4-4--4-|-4-4-4-4--4-4-4-4|
D|-7-7--7-7-7-7--7-|-7-7-7-7--7-7-7-7|-4-4--4-4-4-4--4-|-4-4-4-4--4-4-4-4|
A|-5-5--5-5-5-5--5-|-5-5-5-5--5-5-5-5|-2-2--2-2-2-2--2-|-2-2-2-2--2-2-2-2|
E|-----------------|-----------------|-----------------|-----------------|
 |                                                                       |
 |                                                                       |
e|-2~--------------|-----------------|-----------------|-----------------|
b|-3~--------------|-----------------|-----------------|-----------------|
G|-2~--------------|-----------------|-----------------|-4444444444444444|
D|-0~--------------|-----------------|-----------------|-4444444444444444|
A|-----------------|-----------------|-2~--------------|-2222222222222222|
E|-----------------|-3~--------------|-----------------|-----------------|


Verse (0:15-0:48):

e|-----------------|-----------------|-----------------|-----------------|
b|-----------------|-----------------|-----------------|-----------------|
G|-7-7-7-7-7-7-7-7-|-----------------|-4-4-4-4-4-4-4-4-|-4-4-4-4-4-4-4-4-|
D|-7-7-7-7-7-7-7-7-|-7-7-7-7-7-7-7-7-|-4-4-4-4-4-4-4-4-|-4-4-4-4-4-4-4-4-|
A|-5-5-5-5-5-5-5-5-|-7-7-7-7-7-7-7-7-|-2-2-2-2-2-2-2-2-|-2-2-2-2-2-2-2-2-|
E|-----------------|-5-5-5-5-5-5-5-5-|-----------------|-----------------|
 |                                                                       |
 |                                                                       |
e|-----------------|-----------------|-----------------|-----------------|
b|-----------------|-----------------|-----------------|-----------------|
G|-7-7-7-7-7-7-7-7-|-----------------|-4-4-4-4-4-4-4-4-|-4-4-4-4-4-4-4-4-|
D|-7-7-7-7-7-7-7-7-|-7-7-7-7-7-7-7-7-|-4-4-4-4-4-4-4-4-|-4-4-4-4-4-4-4-4-|
A|-5-5-5-5-5-5-5-5-|-7-7-7-7-7-7-7-7-|-2-2-2-2-2-2-2-2-|-2-2-2-2-2-2-2-2-|
E|-----------------|-5-5-5-5-5-5-5-5-|-----------------|-----------------|

  Broken and tired, I'm needing this...

e|-----------------|-----------------|-----------------|-----------------|
b|-----------------|-----------------|-----------------|-----------------|
G|-7-7-7-7-7-7-7-7-|-----------------|-4-4-4-4-4-4-4-4-|-4-4-4-4-4-4-4-4-|
D|-7-7-7-7-7-7-7-7-|-7-7-7-7-7-7-7-7-|-4-4-4-4-4-4-4-4-|-4-4-4-4-4-4-4-4-|
A|-5-5-5-5-5-5-5-5-|-7-7-7-7-7-7-7-7-|-2-2-2-2-2-2-2-2-|-2-2-2-2-2-2-2-2-|
E|-----------------|-5-5-5-5-5-5-5-5-|-----------------|-----------------|
 |                                                                       |
 |                                                                       |
e|-----------------|-----------------|-----------------|-----------------|
b|-----------------|-----------------|-----------------|-----------------|
G|-7-7-7-7-7-7-7-7-|-----------------|-4-4-4-4-4-4-4-4-|-xxxxxxxxxxxxxxxx|
D|-7-7-7-7-7-7-7-7-|-7-7-7-7-7-7-7-7-|-4-4-4-4-4-4-4-4-|-xxxxxxxxxxxxxxxx|
A|-5-5-5-5-5-5-5-5-|-7-7-7-7-7-7-7-7-|-2-2-2-2-2-2-2-2-|-xxxxxxxxxxxxxxxx|
E|-----------------|-5-5-5-5-5-5-5-5-|-----------------|-----------------|

  Are we giving up or plugging in?

e|-----------------|-----------------|-----------------|-----------------|
b|-----------------|-----------------|-----------------|-----------------|
G|-7-7-7-7-7-7-7-7-|-----------------|-4-4-4-4-4-4-4-4-|-4-4-4-4-4-4-4-4-|
D|-7-7-7-7-7-7-7-7-|-7-7-7-7-7-7-7-7-|-4-4-4-4-4-4-4-4-|-4-4-4-4-4-4-4-4-|
A|-5-5-5-5-5-5-5-5-|-7-7-7-7-7-7-7-7-|-2-2-2-2-2-2-2-2-|-2-2-2-2-2-2-2-2-|
E|-----------------|-5-5-5-5-5-5-5-5-|-----------------|-----------------|
 |                                                                       |
 |                                                                       |
e|-----------------|-----------------|-----------------|-----------------|
b|---------77778888|---------77778888|---------77778888|-ttt8777-ttt877~-|
G|-7-7-7-7-xxxxxxxx|---------xxxxxxxx|-4-4-4-4-xxxxxxxx|-xxxxxxx-xxxxxx--|
D|-7-7-7-7-44445555|-7-7-7-7-44445555|-4-4-4-4-44445555|-7775444-777544~-|
A|-5-5-5-5---------|-7-7-7-7---------|-2-2-2-2---------|-----------------|
E|-----------------|-5-5-5-5---------|-----------------|-----------------|

  And I'm new and believe in... believe in this

e|-----------------|-----------------|-----------------|-----------------|
b|-----------------|-----------------|-----------------|-----------------|
G|-7-7-7-7-7-7-7-7-|-----------------|-4-4-4-4-4-4-4-4-|-4-4-4-4-4-4-4-4-|
D|-7-7-7-7-7-7-7-7-|-7-7-7-7-7-7-7-7-|-4-4-4-4-4-4-4-4-|-4-4-4-4-4-4-4-4-|
A|-5-5-5-5-5-5-5-5-|-7-7-7-7-7-7-7-7-|-2-2-2-2-2-2-2-2-|-2-2-2-2-2-2-2-2-|
E|-----------------|-5-5-5-5-5-5-5-5-|-----------------|-----------------|
 |                                                                       |
 |                                                                       |
e|-----------------|-----------------|-----------------|-----------------|
b|---------77778888|---------77778888|---------77778888|-ttt8777-ttt877~-|
G|-7-7-7-7-xxxxxxxx|---------xxxxxxxx|-4-4-4-4-xxxxxxxx|-xxxxxxx-xxxxxx--|
D|-7-7-7-7-44445555|-7-7-7-7-44445555|-4-4-4-4-44445555|-7775444-777544~-|
A|-5-5-5-5---------|-7-7-7-7---------|-2-2-2-2---------|-----------------|
E|-----------------|-5-5-5-5---------|-----------------|-----------------|

  ...because this is all that I have.

e|-----------------|
b|-----------------|
G|-7~~-------------|
D|-7~~-------------|
A|-5~~-------------|
E|-----------------|
 |                 |
 |                 |
e|-----------------|
b|-----------------|
G|--------7~~------|
D|------7----------|
A|------5----------|
E|-----------------|


Outro (0:44-1:27):

e|-----------------|-----------------|-----------------|-----------------|
b|-----------------|-----------------|-----------------|-----------------|
G|-77x-77x-77x-77x-|-44x-44x-44x-44x-|-----------------|-----------------|
D|-77x-77x-77x-77x-|-44x-44x-44x-44x-|-77x-77x-77x-77x-|-5~------7~------|
A|-55x-55x-55x-55x-|-22x-22x-22x-22x-|-77x-77x-77x-77x-|-5~------7~------|
E|-----------------|-----------------|-55x-55x-55x-55x-|-3~------5~------|
 |                                                                       |
 |                                                                       |
e|-----------------|-----------------|-----------------|-----------------|
b|-----------------|-----------------|-----------------|-----------------|
G|-77x-77x-77x-77x-|-44x-44x-44x-44x-|-----------------|-----------------|
D|-77x-77x-77x-77x-|-44x-44x-44x-44x-|-77x-77x-77x-77x-|-5~------7~------|
A|-55x-55x-55x-55x-|-22x-22x-22x-22x-|-77x-77x-77x-77x-|-5~------7~------|
E|-----------------|-----------------|-55x-55x-55x-55x-|-3~------5~------|

  And I've said that there's nothing left, nothing here for me.

e|-----------------|-----------------|-----------------|-----------------|
b|-----------------|-----------------|-----------------|-----------------|
G|-77x-77x-77x-77x-|-44x-44x-44x-44x-|-----------------|-----------------|
D|-77x-77x-77x-77x-|-44x-44x-44x-44x-|-77x-77x-77x-77x-|-5~------7~------|
A|-55x-55x-55x-55x-|-22x-22x-22x-22x-|-77x-77x-77x-77x-|-5~------7~------|
E|-----------------|-----------------|-55x-55x-55x-55x-|-3~------5~------|
 |                                                                       |
 |                                                                       |
e|-----------------|-----------------|-----------------|-----------------|
b|-----------------|-----------------|-----------------|-----------------|
G|-77x-77x-77x-77x-|-44x-44x-44x-44x-|-----------------|-----------------|
D|-77x-77x-77x-77x-|-44x-44x-44x-44x-|-77x-77x-77x-77x-|-5~------7~------|
A|-55x-55x-55x-55x-|-22x-22x-22x-22x-|-77x-77x-77x-77x-|-5~------7~------|
E|-----------------|-----------------|-55x-55x-55x-55x-|-3~------5~------|

  And they'll say you're on your way to making it.

e|-----------------|-----------------|-----------------|-----------------|
b|-----------------|-----------------|-----------------|-----------------|
G|-77x-77x-77x-77x-|-44x-44x-44x-44x-|-----------------|-----------------|
D|-77x-77x-77x-77x-|-44x-44x-44x-44x-|-77x-77x-77x-77x-|-5~------7~------|
A|-55x-55x-55x-55x-|-22x-22x-22x-22x-|-77x-77x-77x-77x-|-5~------7~------|
E|-----------------|-----------------|-55x-55x-55x-55x-|-3~------5~------|
 |                                                                       |
 |                                                                       |
e|-----------------|-----------------|-----------------|-----------------|
b|---------77778888|---------77tt8877|-----------------|-----------------|
G|-77x-77x-xxxxxxxx|-44x-44x-xxxxxxxx|-----------------|-----------------|
D|-77x-77x-44445555|-44x-44x-44775544|-77x-77x-77x-77x-|-5~------7~------|
A|-55x-55x---------|-22x-22x---------|-77x-77x-77x-77x-|-5~------7~------|
E|-----------------|-----------------|-55x-55x-55x-55x-|-3~------5~------|

  The music: it's all I need. It's everything to me.

e|-----------------|-----------------|-----------------|-----------------|
b|-----------------|-----------------|-----------------|-----------------|
G|-77x-77x-77x-77x-|-44x-44x-44x-44x-|-----------------|-----------------|
D|-77x-77x-77x-77x-|-44x-44x-44x-44x-|-77x-77x-77x-77x-|-5~------7~------|
A|-55x-55x-55x-55x-|-22x-22x-22x-22x-|-77x-77x-77x-77x-|-5~------7~------|
E|-----------------|-----------------|-55x-55x-55x-55x-|-3~------5~------|
 |                                                                       |
 |                                                                       |
e|-----------------|-----------------|-----------------|-----------------|
b|---------77778888|---------77tt8877|-----------------|-----------------|
G|-77x-77x-xxxxxxxx|-44x-44x-xxxxxxxx|-----------------|-----------------|
D|-77x-77x-44445555|-44x-44x-44775544|-77x-77x-77x-77x-|-5~------7~------|
A|-55x-55x---------|-22x-22x---------|-77x-77x-77x-77x-|-5~------7~------|
E|-----------------|-----------------|-55x-55x-55x-55x-|-3~------5~------|

  What we make, what we play.

e|-----------------|
b|-----------------|
G|-7---------------|
D|-7---------------|
A|-5---------------|
E|-----------------|
 |                 |
 |                 |
e|-----------------|
b|-----------------|
G|-----------------|
D|--------%--------|
A|-----------------|
E|-----------------|
   
Tap to rate this tab
# A B C D E F G H I J K L M N O P Q R S T U V W X Y Z