Song name
# A B C D E F G H I J K L M N O P Q R S T U V W X Y Z

Snot - Sleep tab

e--0-3-5-3------------
b---------2-3-2-------
g--------------0-3-5-3
d---------------------
a---------------------
e---------------------

e------------------------------------
b------------------------------------
g------------------------------------
d------------------------------------
a11-11-11-11-10-10-10-10-9-9-9-9--888
e 9- 9- 9- 9- 8- 8- 8- 8-7-7-7-7--666

e-----------------------------------------
b-----------------------------------------
g-----------------------------------------
d-----------------------------------------
a5-5-xx-5-5-xx-4-4-xx-4-4-xx-3-3-xx-3-3-xx
e3-3-xx-3-3-xx-2-2-xx-2-2-xx-1-1-xx-1-1-xx
Tap to rate this tab
 
# A B C D E F G H I J K L M N O P Q R S T U V W X Y Z