Song name
# A B C D E F G H I J K L M N O P Q R S T U V W X Y Z

Snow Patrol - Just Say Yes tab

About 0:50 play (clean w/ delay)

--------------------------------------------------------------------------|
-----------------------------------9-9-9-9-7-9-10-10-10-10-10-10-10-10-10-|
-----------9-9-9-9-9-9-9-9-9-9-9-9----------------------------------------|
-9-9-9-7-7----------------------------------------------------------------|
--------------------------------------------------------------------------|
--------------------------------------------------------------------------|

About 0:58 play (clean w/ delay)

-9-9-9-7-7-12-12-12-9-9-9-7-7-12-12-12-4-4-4-4-4-2-4-5-5-5-5-5-5-5-5------|
--------------------------------------------------------------------------|
--------------------------------------------------------------------------|
--------------------------------------------------------------------------|
--------------------------------------------------------------------------|
--------------------------------------------------------------------------|

Chorus about 1:07 (w/ light distortion, no delay)

-------------------------------------------------------------------------|
-------------------------------------------------------------------------|
-------------------------------------------------------------------------|
-7---------7---------7---------7-----------------------------------------| x2
-7---x16---5---x16---4---x16---5---x16-----------------------------------|
-5-----------------------------------------------------------------------|

And that's pretty much it just repeat at the right times. Listen to the song to know 
parts to play where.
Tap to rate this tab
# A B C D E F G H I J K L M N O P Q R S T U V W X Y Z