Song name
# A B C D E F G H I J K L M N O P Q R S T U V W X Y Z

So - One Night Stand tab

Song: One night stand - New Version
Artist: SO.
Tabbed by: AAore@live.se

e|-----------------|
B|-----------------|
G|-5-5-5-----------|
D|-5-5-5-----------|  
A|-3-3-3-----------|
E|-----------------|

  Bassline:
G|-----------------|-----------------|
D|-----------------|-----------------|  
A|-3-3-3-3-2-2-2-2-|-----------------|  
E|-----------------|-5-5-5-5-3-3-3-3-|



e|-/8--------------|-----------------|
B|-----------------|-----------------|
G|-----------------|-----------------|
D|-----------------|-----------------|
A|-----------------|-----------------|
E|-----------------|-----------------|
 |                 |                 |
 |                 |                 |
e|-----------------|-----------------|
B|-----------------|-----------------|
G|-5---------------|-----------------|
D|-5---------------|-----------------|
A|-3---------------|-----------------|
E|-----------------|-----------------|
 |                 |                 |
 |                 |                 |
G|-----------------|-----------------|
D|-----------------|-----------------|  
A|-3-3-3-3-2-2-2-2-|-----------------|  
E|-----------------|-5-5-5-5-3-3-3-3-|



Tap to rate this tab
# A B C D E F G H I J K L M N O P Q R S T U V W X Y Z