Song name
# A B C D E F G H I J K L M N O P Q R S T U V W X Y Z

Social Distortion - Tainted Love tab

--------------------------------------------------------------------------
			     Tainted Love - Social Distortion
--------------------------------------------------------------------------
Tabbed by: Taylor
Email: NOFX@herzeleid.net


Intro:
e|-------------------------------------------|
B|-------------------------------------------|
G|-------------------------------------------|
D|---x77----x99----x77----x99----------------|
A|---x77----x99----x77----x99----------------|
E|---x55----x77----x55----x77---[pickslide]--|

Intro 2:
e|---------------------|
B|---------------------| [x2]
G|---------------------|
D|---55-77-99-33-------|
A|---55-77-99-33-------|
E|---33-55-77-11-------|


Verse:
e|------------------------------------------------------|
B|------------------------------------------------------|
G|------------------------------------------------------|
D|---55-77-99-33---x77------55-77-99-33--x99------------|
A|---55-77-99-33---x77------55-77-99-33--x99------------|
E|---33-55-77-11---x55------33-55-77-11--x77------------|
      PM........             PM........
Tap to rate this tab
 
# A B C D E F G H I J K L M N O P Q R S T U V W X Y Z