Guitaretab - guitar tabs
Song name
# A B C D E F G H I J K L M N O P Q R S T U V W X Y Z

Social Distortion - Story Of My Life tab

Intro : x2
| --------2-- | 
| -----1--3-- |  
| -----0--2-- | 
| --0--2--0-- |
| --2--3----- | 
| --3-------- | 

| --------------------------------------------------- |
| --------------------------------------------------- |
| --------------------------------------------------- |
| ---------------------------------------4-6--4-6/8-- |
| ---1-2--6-4--4-4--4h6p4--------1-2-4/6------------- |
| -2----------------------6-4--2--------------------- |

| -----------------------------------------------------------6-- |
| ------------------------------------7------7--------7--9-9---- |
| --------------------6--6h8p6--6-6h8----6h8----6-8------------- |
| -6h8p6-4---4--4-6/8------------------------------------------- |
| ---------6---------------------------------------------------- |
| -------------------------------------------------------------- |

Verse 
| ------------------------------ |
| ------------------------------ |
| ------------------------------ |
| ------------------------------ |
| --4-4-4h6p4---------1-2--6-4-- |
| ------------6-4--2------------ |

Chorus

Solo 
| --------------------------------------------------- |
| --------------------------------------------------- |
| --------------------------------------------------- |
| ---------------------------------------4-6--4-6/8-- |
| ---1-2--6-4--4-4--4h6p4--------1-2-4/6------------- |
| -2----------------------6-4--2--------------------- |
[ Tab from: http://www.guitaretab.com/s/social-distortion/17780.html ]
| -----------------------------------------------------------6-- |
| ------------------------------------7------7--------7--9-9---- |
| --------------------6--6h8p6--6-6h8----6h8----6-8------------- |
| -6h8p6-4---4--4-6/8------------------------------------------- |
| ---------6---------------------------------------------------- |
| -------------------------------------------------------------- |

| --6------------------------------------------------- |
| ----9-7---7-------7-9-9----------------------------- |
| --------8----6-8------------------------------------ |
| ---------------------------------------------------- |
| -------------------------4-4--4h6p4-------1-2--6-4-- |
| ------------------------------------6-4-2----------- |

| --------------------------------------- |
| --------------------------------------- |
| --------------------------------------- |
| ----------4-6-6-8----------4-6-6-8-8/-- |
| --4--4-6-----------4--4-6-------------- |
| --------------------------------------- |

| --6-6-6-6---2-2-2-2---2/4-4-4--4-4-4-4-- |
| --7-7-7-7---4-4-4-4---4/6-6-6--6-6-6-6-- |
| --6-6-6-6---4-4-4-4---4/6-6-6--6-6-6-6-- |
| --8-8-8-8---4-4-4-4---4/6-6-6--6-6-6-6-- |
| ---------------------------------------- |
| ---------------------------------------- |

| --6-6-6-6---2-2-2-2---2/4-4-4--4-4-4-4-- | 
| --7-7-7-7---4-4-4-4---4/6-6-6--6-6-6-6-- | 
| --6-6-6-6---4-4-4-4---4/6-6-6--6-6-6-6-- | 
| --8-8-8-8---4-4-4-4---4/6-6-6--6-6-6-6-- | 
| ---------------------------------------- | 
| ---------------------------------------- | 

| -----6------2-----4--4-4-4-4-- |  
| ----7-7----4-4---6-6-6-6-6-6-- | 
| ---6------4-----6----6-6-6-6-- | 
| --8------4------6----6-6-6-6-- | 
| ------------------------------ | 
| ------------------------------ | 

| -----6------2---2/4-4-4-4-4-- | 
| ----7-7----4-4--4/6-6-6-6-6-- |
| ---6------4-----4/6-6-6-6-6-- | 
| --8------4------4/6-6-6-6-6-- | 
| ----------------------------- | 
| ----------------------------- |
Related for Story Of My Life tab
Story Of My Life chords by Social Distortion