Guitaretab - guitar tabs
Song name
# A B C D E F G H I J K L M N O P Q R S T U V W X Y Z

Social Distortion - Far Behind tab

Song- Far Behind
Artist- Social Distortion
Album- Greatest Hits

Tuning- Standard, Ĺ step down (eb Bb Gb Db Ab Eb)

Hereís how this works- Iíll give you all of the different riffs in the song, and then at
end Iíll give you the order that everything is played in. G1= Guitar 1, G2= Guitar 2
This song is pretty easy to play once you get the hang of it.
Hope ya like it!

Intro riff G1#1
 These chords are played through the whole song, just with different rhythms
   Ab? Eb? Db?
eb-0---0---2-----------------------------------------------|
Bb-2---0---3-----------------------------------------------|
Gb-2---x---2-----------------------------------------------|
Db-2---2---0-----------------------------------------------|
Ab-0---2---0-----------------------------------------------|
Eb------0--------------------------------------------------|

Intro riff G2#1
eb-0--0--2--|--0--0--2-----------0--0--2------------------------|
Bb-2--0--3--|--0--0--3--3-2------2--0--3-3-2-3-5~-5~-5~-3-2-----|
Gb-2--x--2--|--2--x--2-------4---2--x--2--------------------4---|
Db-2--2--0--|--2--2--0-----------2--2--0------------------------|
Ab-0--2--0--|--0--2--0-----------0--2--0------------------------|
Eb----0-----|--------0--------------0---------------------------|

Bridge riff 1 G2#4
eb-5---5-4ó--4-5---5-5---5-5---5---4---4---5---5---5---5---------------|
Bb---5-----5-----3-----3-----5---5---5---5---3---3---3---3-------------|
Gb---------------------------------------------------------------------|
Db---------------------------------------------------------------------|
Ab---------------------------------------------------------------------|
Eb---------------------------------------------------------------------|

For the verse, chorus and everything else, G1 plays the same chords, just with different
It would be almost impossible to tab out the rhythm, but itís pretty easy to figure it
if you listen to the song.

Verse G2#2
eb-0-0-2-|-0-0-2---------------------|-0-0-2---------------------------|
Bb-2-0-3-|-2-0-3---------------------|-2-0-3---------------------------|
Gb-2-x-2-|-2-x-2---------------------|-2-x-2---PLAY THE CHORDS AFTER---|
Db-2-2-0-|-2-2-0-9b11r9-7---9b11r9-7-|-2-2-0------- THE BAR 4X --------|
Ab-0-2-0-|-0-2-0----------9----------|-0-2-0---------------------------|
Eb---0---|---0-----------------------|---0-----------------------------|

Chorus G2#3  (play 2x)
eb-5---5-4---4-5---5-5/7-7-7-7\5-5/7--5ó--5-4---4-5---5-5---5----------|
Bb---5-----5-----5----------------------5-----5-----3-----3------------|
Gb---------------------------------------------------------------------|
Db---------------------------------------------------------------------|
Ab---------------------------------------------------------------------|
Eb---------------------------------------------------------------------|

Bridge riff 2 G2#5
eb-5---5---4---4---5---5---5---5---5---5-4---4-5---5-5---5-------------|
Bb---5---5---5---5---3---3---3---3---5-----5-----3-----3---------------|
Gb---------------------------------------------------------------------|
Db---------------------------------------------------------------------|
Ab---------------------------------------------------------------------|
Eb---------------------------------------------------------------------|

Then play verse 1 and the chorus again. Now comes the solo intro
Solo intro G1#2
eb---------------------------------------------------------------------|
Bb---------------------------------------------------------------------|
Gb-14-x----------------------------------------------------------------|
Db-x--x-PLAY THIS 32X and then a nice long pick slide------------------|
Ab-12-x----------------------------------------------------------------|
Eb---------------------------------------------------------------------|

Solo intro G2#6
eb-5-5-PLAY THIS 32X and then play G1 #2 (above) 8X -------------------|
Bb-5-5-----------------------------------------------------------------|
Gb---------------------------------------------------------------------|
Db---------------------------------------------------------------------|
Ab---------------------------------------------------------------------|
Eb---------------------------------------------------------------------|

SOLO! (I tried to at least tab a little of the rhythm)

eb---------------------------------------------------------------------|
Bb---------------------------------------------------------------------|
Gb---------------------------------------------------------------------|
Db---------------------------------------------------------------------|
Ab--------------7-7h9-7------------------------------------------------|
Eb-5--5-5-5-7/9---------10--10-10-10\9-7-5--5-5-7/9-7--7-7h9-7---------|
[ Tab from: http://www.guitaretab.com/s/social-distortion/155785.html ]
eb----------------------------------------------------------------------|
Bb----------------------------------------------------------------------|
Gb---------------------------------------------------------------9------|
Db----------------------7-7-9-7-9b11r9-7---7-9-9b11r9---7-9-9b11--------|
Ab-----------------7--9------------------9------------9-----------------|
Eb-7-5-7-5-7-5ó7/9------------------------------------------------------|

Add artificial harmonics to the starred notes
eb---------------------------------------------------------------------|
Bb-7---7---7-7ó-7*-7*-7*-----------------------------------------------|
Gb---9---9---------------------------9---------------------------------|
Db------------------------7-7-7ó9b11---9*11r9--9-7---7-9p7ó9b11r9-7----|
Ab-------------------------------------------------9-------------------|
Eb---------------------------------------------------------------------|

eb---------------------------------------------------------------------|
Bb---------------------------------------------------------------------|
Gb---------------------------------------------------------------------|
Db---------------------------------------------------------------------|
Ab-9--7-7-7h9-7--10----------------------------------------------------|
Eb------------------10-9-7-9--7-5-7-5-7-5----END OF SOLO---------------|

Then to chorus, 2nd time through G2 plays this:

Outro Solo
eb-*DURING LAST CHORD OF PREVIOUS MEASURE|-----------------------------|
Bb---------------------------------------|-----------------------------|
Gb-9-11-11-9-9-11-11-9-------------------|-----------------------------|
Db-x-x--x--x-x-x--x--x-------------------|-9b11-9-9b11r9-9p7--7-7-7----|
Ab-7/9--9\-7ó7/9--9\-7-------------------|-----------------------------|
Eb---------------------------------------|-----------------------------|


eb----------------------------------------------------------------------------|
Bb--------------10-------------------------------10---------------------------|
Gb------------------↓-*pre-bent-------------9b11----9b11r9-9-9p7-7-7-7--|
Db-7---7-9-9b11----11-11r9---9-9p7--------------------------------------------|
Ab---9-----------------------------9-9-9-9------------------------------------|
Eb----------------------------------------------------------------------------|


eb---------------------------------------------------------------------|
Bb---------------------------------------------------------------------|
Gb---------------------------------------------------------------------|
Db-11p9-11-11-11-9-7-9-9-9--7---7--------------------------------------|
Ab----------------------------9-----TO OUTRO---------------------------|
Eb---------------------------------------------------------------------|

OUTRO- Both Guitars
eb-0--0--2-------------------------------------------------------------|
Bb-2--0--3-------------------------------------------------------------|
Gb-2--x--2-------------------------------------------------------------|
Db-2--2--0-PLAY 2X, play these chords hard.----------------------------|
Ab-0--2--0-------------------------------------------------------------|
Eb----0----------------------------------------------------------------|

AND THATíS IT!

Order:
Intro:      G1#1+G2#1
Bridge:     G1#1+G2#4
Verse 1:    G1#1+G2#2
Chorus:     G1#1+G2#3
Bridge:     G1#1+G2#5
Verse 2:    G1#1+G2#2
Chorus:     G1#1+G2#3
Solo Intro: G1#2+G2#6
Solo:       G1#1+Solo
Chorus:     G1#1+G2#3
Chorus 2:   G1#1+Outro Solo
Outro:      Outro

*One last note: this song can also be played in standard (EADGBE)tuning, just use these 
instead:

e-----------|
B-----------|
G---8-6-----|
D-6-8-6-----|
A-6-6-4-----|
E-4---------|

And just move all of the notes in the solos and such down a fret.

This is my 1st tab, so please let me know if you like it!

Questions? Comments? Corrections? Email me at jaypack44@yahoo.com

With friends like you, who needs enemies?
you ain't right, you ain't never gonna be,
you're out of the car, I'm afraid you've been declined.
you shake my hand, while you're pissing on my leg
I'm cuttin you loose, I don't need this misery
your soul is toxic, you ain't no friend of mine.

You talk real trash when i'm not around
to build yourself up, you gotta to tear me down.
you'll have to excuse me, i've got better things to do.
you smile through your teeth, you talk out your neck
every chance you get you're gonna stab my back.
your time's run out, i've got nothing left for you..

[Chorus:]
I'm leaving you far behind.
I'm leaving you far behind.
Stop wasting all of my time.
I'm leaving you far behind.

So I'm pulling out the weeds, i'm taking stock
you can talk the talk, but cant walk the walk
Your narcissistic ways have gotten the best of you.
So I'm leaving you to sink, in all your glory
For you and me it's the end of the story.
Get out of my way, I've got better things to do..

[Chorus x3]

With friends like you, who needs enemies?
it means you ain't right, you ain't never going
your soul is toxic, you ain't no friend of mine.
Related for Far Behind tab