Song name
# A B C D E F G H I J K L M N O P Q R S T U V W X Y Z

Social Distortion - Faithless tab

Help us improve GuitareTab! Take a short survey!
Tune down half step, listen to song for rhythm

Riff A
E------------------------------------|
B------------------------------------|
G------------6---6-6---------7-7-7-7-|
D---7---7-7--6---6-6-4---4-4-7-7-7-7-|
A---7---7-7--4---4-4-4---4-4-5-5-5-5-|
E---5---5-5----------2---2-2---------|

Riff B
E-------------------------------------------------------------------|
B-------------------------------------------------------------------|
G-----------6---6-6-----------------7---7-7-------------------------|
D---7---7-7-6---4-4-4---4-4-2-2-2-2-7---5-5-7---7-7-9-9-9-9-9-9-9-9-|
A---7---7-7-4---4-4-4---4-4-2-2-2-2-5---5-5-7---7-7-9-9-9-9-9-9-9-9-|
E---5---5-5---------2---2-2-0-0-0-0---------5---5-5-7-7-7-7-7-7-7-7-|

Riff C
E--------------------------|
B--------------------------|
G---------6666--------7777-|
D---7777--6666--5555--7777-|
A---7777--4444--5555--5555-|
E---5555--------3333-------|

Riff D-listen for chord changes during solo, hold last chord
E-------------------|
B-------------------|
G-----7-----------7-|
D---7-7-7-9-7-5-2-7-|
A---7-5-5-9-7-5-2-5-|
E---5---3-7-5-3-0---|


And to organize!!
Riff A x 2
Riff B x 2
Riff C x 1
Riff A x 2
Riff B x 2
Riff C x 2
Riff D x 1
Riff B x 2
Riff c x 2
Riff A x 4

HOORAY!  YOU DID IT!
Related for Faithless tab