Song name
# A B C D E F G H I J K L M N O P Q R S T U V W X Y Z

Social Distortion - So Far Away tab

Help us improve GuitareTab! Take a short survey!
-------------------------------------------------------------------------------
			     so far away -  social distortion
-------------------------------------------------------------------------------

Album:self titled                     p=pull off
tabbed by:jose concha                ^=bend and release
 Standard tuning                       b=hold bend r=release

this is an awsome song, this was alittle tough to tab because of all
the distortion used, please rate it.

 Chorus:
e|------------------------|
B|------------------------|
G|---------9--9--6--------|
D|--6--9---9--9--6--------|
A|--6--9---7--7--4--------|
E|--4--7------------------|

Solo:listen for the second solo, the same, but using pinch harmonics
e|-----6-------------7----------------7---------------|
B|--4-----7--4---4-4-------7--4---4-4-----7--4--------|
G|----------------------------------------------6-4-6-|
D|----------------------------------------------------|
A|----------------------------------------------------|
E|----------------------------------------------------|


e|--------------------6--------------6---------------6-------------------------|
B|-----------6b---r-----7---4----4-4-----7--4----4-4----7---4------------------|
G|------8------6-4--------------------------------------------6-4-6---8--------|
D|-----------------------------------------------------------------------------|
A|-----------------------------------------------------------------------------|
E|-----------------------------------------------------------------------------|

e|-----------------------------------------------------------|
B|-----6b----r---4--4---------4------4--------4-4------------|
G|--------6-4----4--4---------4------4--------4-4-------6^---|
D|-------------6---6------6---------6------6-----------------|
A|-----------------------------------------------------------|
E|-----------------------------------------------------------|

 use pinch harmonics the second time the solo is played
e|-----------------------------------------------------------------------------|
B|-----------------------------------------------------------------------------|
G|--6^--6^---6^p4--------------------------------------------------------------|
D|-----------------6----6---6p4-----4--4----4------4-----4-----4---6-----------|
A|-------------------------------6--------6-----6-----6-----6------------------|
E|-----------------------------------------------------------------------------|
  outro solo:repeat this a few times
e|-----------------------------------------------------------------------------|
B|--4---4---4--4--4--4----4---4---4--4--4--4---4--4---4--4--4--4----4--4--4----|
G|--8---8---8--8--8--8----8---8---8--8--8--8---8--8---8--8--8--8----8--8--8----|
D|-----------------------------------------------------------------------------|
A|-----------------------------------------------------------------------------|
E|-----------------------------------------------------------------------------|
                then this
e|-------------|--6-----------------------------------------------------------|
B|-4--4--4--4--|------7---4-------------------6b------r-----------------------|
G|-8--8--8--8--|---------------6---4---6--8------6--4-------------------------|
D|-------------|-------------------------------------------6------------------|
A|-------------|-------------------------------------------6------------------|
E|-------------|-------------------------------------------4------------------|


------------------------------------------------------------------------------
Related for So Far Away tab