Song name
# A B C D E F G H I J K L M N O P Q R S T U V W X Y Z

Social Distortion - I Was Wrong tab

Social Distotrion
I was wrong
Tabbed by gary t (gary_t44@yahoo.com)

Intro:
e|--------------------------------------------------------------------|
B|--------------------------------------------------------------------|
G|-8-8-8-8-8-8-8-8----------------------------------------------------|
D|-8-8-8-8-8-8-8-8--8-8-8-8-8-8-8-8--3-3-3-3-3-3-3-3--6-6-6-6-6-6-6-6-|
A|-6-6-6-6-6-6-6-6--8-8-8-8-8-8-8-8--3-3-3-3-3-3-3-3--6-6-6-6-6-6-6-6-|
E|------------------6-6-6-6-6-6-6-6--1-1-1-1-1-1-1-1--4-4-4-4-4-4-4-4-|

Verse:
e|--------------------------------------------------------------------|
B|--------------------------------------------------------------------|
G|-8-8-8-8-8-8-8-8----------------------------------------------------|
D|-8-8-8-8-8-8-8-8--8-8-8-8-8-8-8-8--3-3-3-3-3-3-3-3--6-6-6-6-6-6-6-6-|
A|-6-6-6-6-6-6-6-6--8-8-8-8-8-8-8-8--3-3-3-3-3-3-3-3--6-6-6-6-6-6-6-6-|
E|------------------6-6-6-6-6-6-6-6--1-1-1-1-1-1-1-1--4-4-4-4-4-4-4-4-|
PM . . . . . . . .  . . . . . . . .  . . . . . . . .  . . . . . . . .

Chorus:
e|--------------------------------------------------------------------|
B|--------------------------------------------------------------------|
G|-8-8-8-8-8-8-8-8----------------------------------------------------|
D|-8-8-8-8-8-8-8-8--8-8-8-8-8-8-8-8--3-3-3-3-3-3-3-3--6-6-6-6-6-6-6-6-|
A|-6-6-6-6-6-6-6-6--8-8-8-8-8-8-8-8--3-3-3-3-3-3-3-3--6-6-6-6-6-6-6-6-|
E|------------------6-6-6-6-6-6-6-6--1-1-1-1-1-1-1-1--4-4-4-4-4-4-4-4-|

Bridge:
e|--------------------------------------------------------------------|
B|--------------------------------------------------------------------|
G|--------------------------------------------------------------------|
D|-8-8-8-8-8-8-8-8--3-3-3-3-3-3-3-3--6-6-6-6-6-6-6-6--8-8-8-8-8-8-8-8-|
A|-8-8-8-8-8-8-8-8--3-3-3-3-3-3-3-3--6-6-6-6-6-6-6-6--8-8-8-8-8-8-8-8-|
E|-6-6-6-6-6-6-6-6--1-1-1-1-1-1-1-1--4-4-4-4-4-4-4-4--6-6-6-6-6-6-6-6-|
Tap to rate this tab
 
# A B C D E F G H I J K L M N O P Q R S T U V W X Y Z