Song name
# A B C D E F G H I J K L M N O P Q R S T U V W X Y Z

Soda Stereo - En El Borde tab

e--15/17---15------------------------------------------------|
B---------------15/17--15-14-13-12---------------------------|
G----------------------------------12/11--12-----------------|
D----------------------------------------------5/12-12-------|
A------------------------------------------------------------|
E------------------------------------------------------------|

e------------------------------------------------------------|
B---12--------------------------12---------------15/17-------|
G-------14"12---------12"14----------------------------------|
D---------------14----------------------14-------------------|
A------------------------------------------------------------|
E------------------------------------------------------------|

e--[(17)15"12-(17)14"12](x4)[(19)15"12-(19)14"12](x4)---------|
B-------------------------------------------------------------|
G-------------------------------------------------------------|
D-------------------------------------------------------------|
A-------------------------------------------------------------|
E-------------------------------------------------------------|

e------15"14"15"14--------------14"12-15"12-15/17-|
B-17/19-----------15------------------------------|
G-------------------14---16"14"12-----------------|
D---------------------14--------------------------|
A-------------------------------------------------|
E-------------------------------------------------|


(") significa ligado...
(/) signific arrastrar...
El (17) y (19) que estan entre parentesis se hace tappin con la púa,
(si quieren hacerlo con el dedo también está bien)
Tap to rate this tab
 
# A B C D E F G H I J K L M N O P Q R S T U V W X Y Z