Song name
# A B C D E F G H I J K L M N O P Q R S T U V W X Y Z

Soda Stereo - Musica Ligera tab

Help us improve GuitareTab! Take a short survey!
De Musica Ligera
SODA STEREO
cANCION aNIMAL (1988)


----iNTRO---

     Sim    Sol  Re    La 
e|----2-2-X-----3-2-2--0-0-0-0-0---|
B|----3-3-X-----3-3-3--2-2-2-2-2---|
G|----4-4-X-----0-2-2--2-2-2-2-2---|
D|----4-4-X-0-0-0-0-0--2-2-2-2-2---|
A|----2-2-X-2-2-2------0-0-0-0-0---| 
E|----------3-3-3------------------|

--VERSE #1--
(Palm muted)

Sim      G     D        A        Sim   G  D  A  Sim
Ella durmió     al calor de las masas

Sim      G     D        A        Sim  G  D  A  Sim
Y yo desperté    queriendo soñarla
 
Sim      G       (Fill)D       A   Sim  G  D  A  Sim
Algún tiempo atrás    pensé en escribirle
Sim      G       (Fill)D       A   Sim  G  D  A  Sim
Que nunca sorteé     Las trampas del amor

Fill
       Sol  Re    La 
e|----3-2-2--|
B|----3-3-3--|
G|----0-2-2--|
D|----0-0-0--|
A|----2------| 
E|----3------|

--CHORUS--

Sim      G     D        A        Sim  G  D  A  Sim
De aquel amor          De musica ligera

Bm           G  D       A        Sim  G  D  A  Sim
Nada nos libra       Nada mas queda

----BRIDGE-----

e|------------------------------------------------------------------|
B|------------------------------------------------------------------|
G|------------------------------------------------------------------|
D|------------------------------------------------------------------|
A|--2--2--4--5~------4--5--4--2--------2~------0--2--0--------------| 
E|------------------------------5--2~------------------0--2--2--0---|

e|-----------------------------------------------------------------|
B|-----------------------------------------------------------------|
G|-----------------------------------------------------------------|
D|---------------------2--4----------------------------------------|
A|--2-2--4--5~------4--5--------5--4--2~-----/5-4-2----------------| 
E|-----------------------------------------------------------------|

---VERSE---
Sim      G     D        A        Sim   G  D  A  Sim
No le enviaré         cenizas de rosas
Sim      G     D        A        Sim   G  D  A  Sim
Ni pienso evitar     un roce secreto

--CHORUS---

---SOLO----

   Q    E    E   E  E    Q       E    E   E  E    E  E    E   E
------------------------------|-----------------------------------|
--12----0h--10---L--0h--12----|--0h--10---L--0h--12--0h--10---LS--|
------------------------------|-----------------------------------|
------------------------------|-----------------------------------|
------------------------------|-----------------------------------|
------------------------------|-----------------------------------|


  Q    E  E  E  E  E  E      S  S   E  Q     E      E   E      E
-------------------------|----------------------------------------|
--7----L--5--L--7--L--7--|--10p-7-7g5--7----10--10g12--12--12g17--|
-------------------------|----------------------------------------|
-------------------------|----------------------------------------|
-------------------------|----------------------------------------|
-------------------------|----------------------------------------|


   Q     Q     Q     Q        E   E   E   E   E   E   E      E
--12----------------------|--12---------------------------------|
--------15----14----15----|------15--14--12---L--14--12--12g10--|
--------------------------|-------------------------------------|
--------------------------|-------------------------------------|
--------------------------|-------------------------------------|
--------------------------|-------------------------------------|


  S  S  S  S   E  S  S  S  S   E  S  S  S  S
--5h-7p-5---------5h-7p-5---------5h-7p-5------|
----------(5)h-5----------(5)h-5----------(5)h-|
-----------------------------------------------|
-----------------------------------------------|
-----------------------------------------------|
-----------------------------------------------|


  E  S  S  S  S   E  S  S  S  S   E   E      Q.      E   Q.      E
-----7h-9p-7---------5h-7p-5---------12--|--14------12--14------12--|
--5----------(7)h-7----------(5)h-5------|--------------------------|
-----------------------------------------|--------------------------|
-----------------------------------------|--------------------------|
-----------------------------------------|--------------------------|
-----------------------------------------|--------------------------|


   E   E   E   Q.      E   E      Q     Q     Q     Q
--14--15--14--12------12--14--|--15----14----12----10----|
------------------------------|--------------------------|
------------------------------|--------------------------|
------------------------------|--------------------------|
------------------------------|--------------------------|
------------------------------|--------------------------|


  E   E   E   E   E  E  E   E      E   E  E  E     S  S E  Q
--9--10--12--10---L--9--L------|--------------------------------|
---------------------------14--|---L\--7--L--7--7g10p-7----7----|
-------------------------------|------------------------9-------|
-------------------------------|--------------------------------|
-------------------------------|--------------------------------|
-------------------------------|--------------------------------|


  E   Q.      Q    Q       H           S  S E  Q
------------------------|---------------------------|
--L--12------10----7----|--7--------7g10p-7----7----|
------------------------|-------------------9-------|
------------------------|---------------------------|
------------------------|---------------------------|
------------------------|---------------------------|


      S   S  E      S   S  E      S   S  E      S   S  E
----------------------------------------------------------|
--10g12p-10-----12g14p-12-----14g15p-14-----15g17p-15-----|
------------11------------11------------14------------14--|
----------------------------------------------------------|
----------------------------------------------------------|
----------------------------------------------------------|


“De   aquel   amor                    de   música li
  Bm   Bm                  D    D   D A  A  A  A
  Q    E.  S E  E  Q       Q    E.  S E  E  E  E
--2----2-----------3----|--2----2---2-0--0--0--0--|
--3----3-----------0----|--3----3---3-2--2--2--2--|
--4----4-----------0----|--2----2---2-2--2--2--2--|
--0----0-----------0----|--0----0---0-2--2--2--2--|
--2----2----------------|-------------0--0--0--0--|
-----------3-3--3-------|-------------------------|


  gera,
  Bm   Bm                  D    D   D A  A  A  A
  Q    E.  S E  E  Q       Q    E.  S E  E  E  E
--2----2-----------3----|--2----2---2-0--0--0--0--|
--3----3-----------0----|--3----3---3-2--2--2--2--|
--4----4-----------0----|--2----2---2-2--2--2--2--|
--0----0-----------0----|--0----0---0-2--2--2--2--|
--2----2----------------|-------------0--0--0--0--|
-----------3-3--3-------|-------------------------|


  nada    nos  libra,                   nada más
  Bm   Bm                  D    D   D A  A  A  A
  Q    E.  S E  E  Q       Q    E.  S E  E  E  E
--2----2-----------3----|--2----2---2-0--0--0--0--|
--3----3-----------0----|--3----3---3-2--2--2--2--|
--4----4-----------0----|--2----2---2-2--2--2--2--|
--0----0-----------0----|--0----0---0-2--2--2--2--|
--2----2----------------|-------------0--0--0--0--|
-----------3-3--3-------|-------------------------|


  queda,                              nada más...
  Bm   Bm                  D    D   D A  A  A  A
  Q    E.  S E  E  Q       Q    E.  S E  E  E  E
--2----2-----------3----|--2----2---2-0--0--0--0--|
--3----3-----------0----|--3----3---3-2--2--2--2--|
--4----4-----------0----|--2----2---2-2--2--2--2--|
--0----0-----------0----|--0----0---0-2--2--2--2--|
--2----2----------------|-------------0--0--0--0--|
-----------3-3--3-------|-------------------------|


-----OUTRO-----

  E.  S S S S S S E  S S S S S
--7---7-7-7-7-7-x-7--7-7-7-7-7-|
--7---7-7-7-7-7-x-8--8-8-8-8-8-|
--7---7-7-7-7-7-x-7--7-7-7-7-7-|
--9---9-9-9-9-9-x-9--9-9-9-9-9-|
-------------------------------|
-------------------------------|


  E.  S S S S S  S  E   S  S  S  S  S
--5---5-5-5-5-5/-x--9---9--9--9--9--9-|
--7---7-7-7-7-7/-x-10--10-10-10-10-10-|
--7---7-7-7-7-7/-x--9---9--9--9--9--9-|
--7---7-7-7-7-7/-x-11--11-11-11-11-11-|
--------------------------------------|
--------------------------------------|


  E.  S S S S S S E  S S S S S
--7---7-7-7-7-7-x-7--7-7-7-7-7-|
--7---7-7-7-7-7-x-8--8-8-8-8-8-|
--7---7-7-7-7-7-x-7--7-7-7-7-7-|
--9---9-9-9-9-9-x-9--9-9-9-9-9-|
-------------------------------|
-------------------------------|


                                        Solo final 2:50
                           nada más      quedaa,
  E.  S S S S S  S  E   S  S  S  S  S     Q    E    E   E  E    Q
--5---5-5-5-5-5/-x--9---9--9--9--9--9-|------------------------------|
--7---7-7-7-7-7/-x-10--10-10-10-10-10-|--12----0h--10---L--0h--12----|
--7---7-7-7-7-7/-x--9---9--9--9--9--9-|------------------------------|
--7---7-7-7-7-7/-x-11--11-11-11-11-11-|------------------------------|
--------------------------------------|------------------------------|
--------------------------------------|------------------------------|


                  nada   máas        queda,
  E    E   E  E    E  E    E   E      Q    E  E  E  E  E  E
-----------------------------------|-------------------------|
--0h--10---L--0h--12--0h--10---LS--|--7----L--5--L--7--L--7--|
-----------------------------------|-------------------------|
-----------------------------------|-------------------------|
-----------------------------------|-------------------------|
-----------------------------------|-------------------------|


                      nada    más         que  daaa
   S  S   E  Q     E      E   E      E      Q     Q     Q     Q
----------------------------------------|--12----------------------|
--10p-7-7g5--7----10--10g12--12--12g17--|--------15----14----15----|
----------------------------------------|--------------------------|
----------------------------------------|--------------------------|
----------------------------------------|--------------------------|
----------------------------------------|--------------------------|


                      nada     más      quee daa”.
   E   E   E   E   E   E   E      E      Q     Q     Q     Q
--12---------------------------------|--------------------------|
------15--14--12---L--14--12--12g10--|--------14----15----17----|
-------------------------------------|--16----------------------|
-------------------------------------|--------------------------|
-------------------------------------|--------------------------|
-------------------------------------|--------------------------|


   Q     Q     Q     Q        H         H           W
--------------14----17----|--19\-----------------|-------------------|
--15----17----------------|----------------------|-------------------|
--------------------------|----------------------|-------------------|
--------------------------|----------------------|-------------------|
--------------------------|----------------------|-------------------|
--------------------------|----------------------|-------------------|


    H          H           W                   Q    H        Q
--(19)\-----------------|-------------------|--3----2-------------||
------------------------|-------------------|--3----3-------------||
------------------------|-------------------|--0----2-------------||
------------------------|-------------------|---------------------||
------------------------|-------------------|---------------------||
------------------------|-------------------|---------------------||
Related for Musica Ligera tab