Song name
# A B C D E F G H I J K L M N O P Q R S T U V W X Y Z

Sofia Talvik - Ghosts tab

-------------------------------------------------------------------------------
GHOSTS - Sofia Talvik
-------------------------------------------------------------------------------
Tabbed by: Eleanor Mehlenbacher
Email: edare9439@gmail.com
Artist Website: http://www.sofiatalvik.com

This is a pretty simple tab, straight from the original song. :)


Tuning: Standard, no capo

Chords: G F Am C
        D Am G C

Verse: (play x4 for each verse)
e|-------3-------0-------0-------0--|
B|-------0-0-----1-0-----1-0-----1--|
G|-----0-------0-------2-------0----|
D|----------------------------------|
A|-------------------0-------3------|
E|---3-------1----------------------|
     G       F       Am      C

Chorus: (play x3 for each chorus; on 3rd time only play first half, then switch back to 
chords on G)
e|-------2-------2-------0-------0-------3-------3-------0-------0----|
B|-------3-3-----3-0-----1-1-----1-0-----0-0-----0-0-----1-1-----1-0--|
G|-----2-------2-------2-------2-------0-------0-------0-------0------|
D|---0-------0--------------------------------------------------------|
A|-------------------0-------0-----------------------3-------3--------|
E|-----------------------------------3-------3------------------------|
     D               Am              G               C


Lyrics:
Pinch my arm to see if I'm awake or asleep
No there's nothing wrong
I'm just living through the hell of a bad week

I'm gonna go out drinking with my friends
To forget your sins
You might me innocent
But my head is filling in the blanks

Oh why are you wasting time on her?
Come waste your time with me instead
Why are you wasting time on her?
When you could waste your time with me
Come waste your time with me

You shouldn't have asked me
If you expected me to lie
But how can you ask me
To accept what makes me die inside

Oh why are you wasting time on her?
Come waste your time with me instead
Why are you wasting time on her?
When you could waste your time with me
Come waste your time

Oh why are you wasting time on ghosts?
Come waste your time with me instead
Why are your thoughts so far away?
When I am right here in your bed
You've got to kill those ghosts today
Why are you wasting time?
Why are you wasting time on ghosts?

Pinch my arm to see if I'm awake or asleep
No there's nothing wrong
I'm just living through the hell of a bad week
Tap to rate this tab
 
# A B C D E F G H I J K L M N O P Q R S T U V W X Y Z