Song name
# A B C D E F G H I J K L M N O P Q R S T U V W X Y Z

Soja - True Love tab

listen to da song to get da beat
E----------------------------------9-----------------------------------|
A-5---------------------7----------------7-9-7-------------------------|
D--7---------------------7----------9----------9-----------------------|
G---7---------------7-----6---------9-----------9------9---------------|
B----7-------10---7--------5---------------------9p10-10---------------|
E---------10----------------5------------------------------------------|
chords
E-------------------|
A-5---------7-------|
D-7---------7-------|
G-7---------6-------|
B-7---------5-------|
E-----------5-------|
Tap to rate this tab
 
# A B C D E F G H I J K L M N O P Q R S T U V W X Y Z