Song name
# A B C D E F G H I J K L M N O P Q R S T U V W X Y Z

Soja - Rest Of My Life tab

chords Gm F Dflat

intro

guitar 1
e---------------------------------------------------------------------|
b----11-11----10-10---10-10-10--8-88--10------------------------------| x4
G---------------------------------------------------------------------|
D---------------------------------------------------------------------|
A-10-10-10--8--8--8-8----8--8-----------------------------------------|
E---------------------------------------------------------------------|

guitar 2
e---------------------------------------------------------------------|
b------------------------3--1-----------------------------------------|x2
G-----------------2h3h5--------3-(2)----------------------------------|
D------------------------0--------------------------------------------|
A---------------------------3--1-(0)----------------------------------|
E---------------------------------------------------------------------|

e-----------------------5-3-------------------------------------------|
b-----------------5h6h8-----6-(4)-------------------------------------|
G---------------------------------------------------------------------|
D---------------------------------------------------------------------|
A---------------------------------------------------------------------|
E---------------------------------------------------------------------|

verse/chorus                      verse/chorus(alt.)
e-----10101010h11p10-8----------|----10101010h11p10-8--13--------------|
b----------------------8--------|---------------------8----------------|
G--------------------------10---|--------------------------------------|
D-------------------------------|--------------------------------------|
A-------------------------------|--------------------------------------|
E-------------------------------|--------------------------------------|

end(outro is the same as intro except for very end)
e-----------------------------------|
b----11h15p11-----------------------|
G-----------------------------------|
D-----------------------------------|
A-10--------------------------------|
E-----------------------------------|
Tap to rate this tab
 
# A B C D E F G H I J K L M N O P Q R S T U V W X Y Z