Song name
# A B C D E F G H I J K L M N O P Q R S T U V W X Y Z

Soja - Sorry tab

Guitar 1
-------------------------------------------------------------------|
-------------------------------------------------------------------|
-----9----7---------5---4------------------------------------------|
-----9----7---5-----5---4------------------------------------------|
-----7----5---5-----3---2------------------------------------------|
--------------3----------------------------------------------------|

Guitar 2

-----------10--8----------------10-8-------------------------------|
------7-8---------8--10b---7-8--------8-10b------------------------|
-4/9---------------------9-------------------9---------------------|
-------------------------------------------------------------------|
-------------------------------------------------------------------|
-------------------------------------------------------------------|

Listen to the song for the rythmn.
Tap to rate this tab
 
# A B C D E F G H I J K L M N O P Q R S T U V W X Y Z