Song name
# A B C D E F G H I J K L M N O P Q R S T U V W X Y Z

Sol Invictus - Michael tab

Artist      : Sol Invictus - http://www.tursa.com/
Title       : Michael
Album       : Trees in Winter
Tuning      : EADGBE (Standard E)
Information : This is quite an easy song to play. I didn't bother tabbing the flute part 
because you'd need a second guitar for that. Maybe someone else can add it to this tab, 
I really don't feel like it. Anyhow, enjoy.

|--0-2h3-2-3p2-0-0-----0-2h3-2-3p2-0---|
|------------------0-0-----------------|
|--------------------------------------|
|--2-----------2---4---2---------------|
|--------2-------------------2---------|
|----------------------------------0---|

|--3h5-7-8p7-5-7p5-3-5p3-2-0h2h3-3-5p3-2-3p2-0--|
|-----------------------------------------------|
|-----------------------------------------------|
|------5-----4-----2----------------------------|
|-----------------------2-------0-----2---------|
|--------------------------------------------0--|
Tap to rate this tab
 
# A B C D E F G H I J K L M N O P Q R S T U V W X Y Z