Song name
# A B C D E F G H I J K L M N O P Q R S T U V W X Y Z

Soledad Pastorutti - Entre A Mi Pago Sin Golpear tab

Espero que les guste.

Intro:
1|--------------------7---------7-------------|
2|--------4---5---7-8---8--5--8---7--4--7--5--|
3|-4--6---------------------------------------|
4|--------------------------------------------|
5|--------------------------------------------|
6|--------------------------------------------|

1|--------------------7---------7-------------|
2|--------4---5---7-8---8--5--8---7--4--7--5--|
3|-4--6---------------------------------------|
4|--------------------------------------------|
5|--------------------------------------------|
6|--------------------------------------------|

Do                         Re          Sol
Fue mucho mi penar andando lejos del pago
       La                           Sol
tanto correr pa' llegar a ningún lado
                  MIm        SI7          MIm
si estaba donde nací lo que buscaba por ahí.

Introducción:

Es oro la amistad que no se compra ni vende
solo se da cuando en el pecho se siente
no es algo que se ha de usar cuando te sirva y nada más

Introducción:

Así es como se dan en la amistad mis paisanos
sus manos son pan cacho y mate cebado
y la flor de la humildad suele su rancho perfumar


La vida me han prestao y tengo que devolverla
cuando el creador me llame para la entrega
que mis huesos, piel y sal abonen mi suelo natal.


Introducción:

La luna es un terrón que alumbra con luz prestada
solo el cantor que canta coplas del alma
le estalla en el corazón el sol que trepa por su voz.

Introducción:

Cantor para cantar si nada dicen tus versos
Ay! para qué vas a callar al silencio
si es el silencio un cantor lleno de duendes en la voz
Introducción:

Mi pueblo es un cantor que canta la chacarera
no ha de cantar lo que muy dentro no sienta
cuando lo quiera escuchar entre a mi pago sin golpear.

La vida me han prestao y tengo que devolverla
cuando el creador me llame para la entrega
que mis huesos, piel y sal abonen mi suelo natal.



Listo, sigan tokando!
Tap to rate this tab
 
# A B C D E F G H I J K L M N O P Q R S T U V W X Y Z