Song name
# A B C D E F G H I J K L M N O P Q R S T U V W X Y Z

Solitude Rebels - Colorblind tab

STYG - COLORBLIND

INTRO
(rhythm guitar)
D---------------------------------------------------------------------------|
A---------------------------------------------------------------------------|
F---------------------------------------------------------------------------|
C-0-0-0----5*---------------------------------------------------------------|
G-0-0-0---------------------------------------------------------------------|
C-0-0-0---------------------------------------------------------------------|


(rhythm guitar)
D---------------------------------------------------------------------------|
A---------------------------------------------------------------------------|
F---------------------------------------------------------------------------|
C--7---5---10---10/12---10-12-5-7-------------------------------------------|
G--7---5---10---10/12---10-12-5-7-------------------------------------------|
C--7---5---10---10/12---10-12-5-7-------------------------------------------|

(lead guitar)
D---------------------------------------------------------------------------|
A---------------------------------------------------------------------------|
F--14--16--17--16-------9--9/10----9--10--7--9------------------------------|
C---x---x---x---x-------x--x--x----x---x--x--x------------------------------|
G--12--14--15--14-------7--7--8----7---8--5--7------------------------------|
C---------------------------------------------------------------------------|

CHORUS (x2)

(rhythm guitar)
D---------------------------------------------------------------------------|
A---------------------------------------------------------------------------|
F---------------------------------------------------------------------------|
C-5-77-777-7-777-7-77-7---5-55-----5----5----5-7-77-----7-----7----7--------|
G-5-77-777-7-777-7-77-7---3-33-----3----3----3-5-55-----5-----5----5--------|
C-5-77-777-7-777-7-77-7-------000--000---00--------000---000---00-----------|

D---------------------------------------------------------------------------|
A---------------------------------------------------------------------------|
F-10--9--7------------------------------------------------------------------|
C--x--x--x------------------------------------------------------------------|
G--8--7--5------------------------------------------------------------------|
C---------------------------------------------------------------------------|

(lead guitar)
D---------------------------------------------------------------------------|
A---------------------------------------------------------------------------|
F---------------------------------------------------------------------------|
C-5-77-777-7-777-7-77-7---5-55-----5----5----5-7-77-----7-----7----7--------|
G-5-77-777-7-777-7-77-7---3-33-----3----3----3-5-55-----5-----5----5--------|
C-5-77-777-7-777-7-77-7-------000--000---00--------000---000---00-----------|

D---------------------------------------------------------------------------|
A---------------------------------------------------------------------------|
F--7--5--4------------------------------------------------------------------|
C--x--x--x------------------------------------------------------------------|
G--5--4--2------------------------------------------------------------------|
C---------------------------------------------------------------------------|

MIDDLE BREAKDOWN(x2)
(rhythm guitar)
D---------------------------------------------------------------------------|
A---------------------------------------------------------------------------|
F---------------------------------------------------------------------------|
C--5-7777--5-7777---5-5/7--5-7777--555--777-555--555------------------------|
G--5-7777--5-7777---3-3/5--5-7777--555--555-555--333------------------------|
C--5-7777--5-7777----------5-7777--555------555-----------------------------|

(lead guitar)
D---------------------------------------------------------------------------|
A---------------------------------------------------------------------------|
F----------------------------------999/101010---777-999---------------------|
C--5-7777--5-7777---5-5/7--5-7777--xxx/-x-x-x---xxx-xxx---------------------|
G--5-7777--5-7777---3-3/5--5-7777--777/-8-8-8---555/777---------------------|
C--5-7777--5-7777----------5-7777-------------------------------------------|

CHORUS(x2)
(rhythm guitar)
D---------------------------------------------------------------------------|
A---------------------------------------------------------------------------|
F---------------------------------------------------------------------------|
C-5-77-777-7-777-7-77-7---5-55-----5----5----5-7-77-----7-----7----7--------|
G-5-77-777-7-777-7-77-7---3-33-----3----3----3-5-55-----5-----5----5--------|
C-5-77-777-7-777-7-77-7-------000--000---00--------000---000---00-----------|

D---------------------------------------------------------------------------|
A---------------------------------------------------------------------------|
F-10--9--7------------------------------------------------------------------|
C--x--x--x------------------------------------------------------------------|
G--8--7--5------------------------------------------------------------------|
C---------------------------------------------------------------------------|


(lead guitar)
D----------------------------------------------------------------------------|
A----------------------------------------------------------------------------|
F----------------------------------------------------------------------------|
C-5-77-777-7-777-7-77-7---5-55-----5----5----5-7-77-----7-----7----7---------|
G-5-77-777-7-777-7-77-7---3-33-----3----3----3-5-55-----5-----5----5---------|
C-5-77-777-7-777-7-77-7-------000--000---00--------000---000---00------------|

D---------------------------------------------------------------------------|
A---------------------------------------------------------------------------|
F--7--5--4------------------------------------------------------------------|
C--x--x--x------------------------------------------------------------------|
G--5--4--2------------------------------------------------------------------|
C---------------------------------------------------------------------------|

(rhythm guitar)
D---------------------------------------------------------------------------|
A---------------------------------------------------------------------------|
F-10------------------------------------------------------------------------|
C--x---5---7---5------------------------------------------------------------|
G--8---3---7---5------------------------------------------------------------|
C----------7---5------------------------------------------------------------|

(lead guitar)
D---------------------------------------------------------------------------|
A---------------------------------------------------------------------------|
F--7---10---9---9/10---9---7---5---4----------------------------------------|
C--x----x---x---x/-x---x---x---x---x----------------------------------------|
G--5----8---7---7/-8---7---5---3---2----------------------------------------|
C---------------------------------------------------------------------------|
-
OUTRO

(rhythm guitar)
D---------------------------------------------------------------------------|
A---------------------------------------------------------------------------|
F--------------------(x4)---------------------------------------------------|
C--7~-7777777777777-7~---555-777--555--555----------------------------------|
G--7~-7777777777777-7~---555-555--555--333----------------------------------|
C--7~-7777777777777-7~---555------555---------------------------------------|

(lead guitar)
D---------------------------------------------------------------------------|
A---------------------------------------------------------------------------|
F---------------------(x4)----9-9/10----7-7/9-------------------------------|
C--7~-7777777777777-7~--------x-x/-x----x-x/x-------------------------------|
G--7~-7777777777777-7~--------7-7/-8----5-5/7-------------------------------|
C--7~-7777777777777-7~------------------------------------------------------|

(rhythm guitar)
D---------------------------------------------------------------------------|
A---------------------------------------------------------------------------|
F---------------------(x4)--------------------------------------------------|
C-7~-7777777777777-7~------5---777-5/4--------------------------------------|
G-7~-7777777777777-7~------5---555-3/2--------------------------------------|
C-7~-7777777777777-7~------5------------------------------------------------|

(lead guitar)
D---------------------------------------------------------------------------|
A---------------------------------------------------------------------------|
F--------------------(x4)--9-9999999--------101010--10/9--------------------|
C-7~-7777777777777-7~------x-xxxxxxx---------x-x-x---x/x--------------------|
G-7~-7777777777777-7~------7-7777777---------8-8-8---8/7--------------------|
C-7~-7777777777777-7~-------------------------------------------------------|

(both guitars)
D---------------------------------------------------------------------------|
A---------------------------------------------------------------------------|
F---------------------------------------------------------------------------|
C-7~-77~-777-7~-777-7~-77-7~-7--3~-33~-333-3~-33----777-5/4-----------------|
G-7~-77~-777-7~-777-7~-77-7~-7--3~-33~-333-3~-33----555-3/2-----------------|
C-7~-77~-777-7~-777-7~-77-7~-7--3~-33~-333-3~-33----------------------------|
       palm mute all that doesnt have ~ this after it which is a ring


CHORUS (x2)

OUTRO
(both guitars)
D---------------------------------------------------------------------------|
A---------------------------------------------------------------------------|
F---------------------------------------------------------------------------|
C-5-7777--------------------------------------------------------------------|
G-5-7777--------------------------------------------------------------------|
C-5-7777--------------------------------------------------------------------|

This tab is accurate i think.
if any questions

AIM =wowalexuranidiot
myspace = www.myspace.com/dgafalex

have fun<3
Tap to rate this tab
 
# A B C D E F G H I J K L M N O P Q R S T U V W X Y Z