Someone Still Loves You Boris Yeltsin - Back In The Saddle tab

|------6---------------|
|-----9-----10---------|
|---7-----8------------|
|-5--------------------|
|----------------------|

|| Repeat

 


****************************************************************

BRIDGE

  Gm      F          C       A#      Gm      F
|-----6-----------------------------------------------|
|-------8---------10-----5-------3---------3-------1--|
|---7----------10----------5-------3-----3-------2----|
|-5---------10---------5-------3-------5--------------|
|---------8----------3-------1-----------------3------|
|------------------------------------3-------1--------|

  C       Gm      A#      F       C       Gm
|-----------------------------------------------------|
|-------5-------3-------3---------------5-------3-----|
|-----5-------3-------3---------1-----5-------3-------|
|---5-------5-------3---------2-----5-------5---------|
|-3---------------1---------3-----3-------------------|
|---------3---------------1---------------3-----------|

 

CHORUS

      Dm       F        C    Gm
|-----5--------1-------------3-3-3-3--3----|
|-----6--------1--------5----3-3-3-3--3----|
|-----7--------2--------5----3-3-3-3--3----|
|-----7--------3--------5----5-5-5-5--5----|
|-5-5-5--------3----3-3-3----5-5-5-5--5----|
|----------1-1-1-------------3-3-3-3--3----|

|| Repeat

 

END

|--------------8-10----|
|-------6--------------|
|-----9-----10---------|
|---7-----8------------|
|-5--------------------|
|----------------------|

|| Repeat
Tap to rate this tab
 
# A B C D E F G H I J K L M N O P Q R S T U V W X Y Z