Song name
# A B C D E F G H I J K L M N O P Q R S T U V W X Y Z

Something Else - The Girl tab

Something Else, The Girl.
Tabbed by Kevin Melvin, kmelvin1@hotmail.com.
  
Band: Something Else
Album:  Self-Titled
Song:  The Girl

Official Webpage:  www.mp3.com/somethingelse

Intro:
---------------------------------------------
---------------------------------------------
----6----6-----------------------------------
----6----6-6----6-8---8-4--------------------
----4----4-6----6-8---8-4--------------------
-----------4----4-6---6-2--------------------

Part #1
---------------------------------------------
---------------------------------------------
--6------------------------------------------
--6--------6------8------4-------------------
--4--------6------8------4-------------------
-----------4------6------2-------------------
 (X8)     (X8)   (X8)   (X8)

Part #2
------------------------------------------------
------------------------------------------------
----6-------------------------------------------
----6----66-----88-----44-----------------------
----4----66-----88-----44-----------------------
---------44-----66-----22-----------------------

Part #3
---------------------------------------------
---------------------------------------------
--6----------------------------6-------------
--6--------6------8------4-----6----6-----8--
--4--------6------8------4-----4----6-----8--
-----------4------6------2----------4-----6--
 (X8)     (X8)   (X8)   (X8)  (X8) (X8)
|--------Palm Muted-------------------|

Intro
Part 1
Part 2 (X6)
Part 1
Part 3
Part 1 (X2)
Part 2 (X2)
Part 1
Part 2 (X6)
Part 1 (X2)
Part 2 (X2) 

:: Ultimate Guitar Archive :: 
http://www.ultimate-guitar.com 
Tap to rate this tab
 
# A B C D E F G H I J K L M N O P Q R S T U V W X Y Z