Song name
# A B C D E F G H I J K L M N O P Q R S T U V W X Y Z

Sondaschule - Tausche Alkoholsucht Gegen Liebe tab

e -----------------------------------------------------------------------------|
b --------------------------------------------------6-5------5-----------------|
G --------5-------5-7------7------9-----9-------------7-5---7-5-7--------------|
D ---5h7----5h7-----5--5--5--5--7--7--7--7-------------------------------------| 2x
A -----------------------------------------------------------------------------|
E -----------------------------------------------------------------------------|

e -----------------------------------------------------------------------------|
b ------------------------------5-9-5------------------------------------------|
G --------5-------5-7------7---------7-----------------------------------------|
D ---5h7----5h7-----5--5-------------------------------------------------------|
A -----------------------------------------------------------------------------|
E -----------------------------------------------------------------------------|

Strophe:
C | G | a | F | 2x

Prechorus:
a | C | e | FG |
a | C | F | G |

Ref:
C | e | a | F | 2x

Das ganze 2 mal und in der 3. Strophe dann:
a | e | F | G | 4x
F | G
Tap to rate this tab
 
# A B C D E F G H I J K L M N O P Q R S T U V W X Y Z