Guitaretab - guitar tabs
Song name
# A B C D E F G H I J K L M N O P Q R S T U V W X Y Z

Sonic Syndicate - Denied tab

Sonic Syndicate - Denied
Drop C Tuning

Hey guys, I found this tab on a website and thought I'd tab and post it on here for all 
see.
I take no credit for this tab, which can be found at 
Enjoy!


Intro
  Guitar 1
D|---------------------------------------------------------------------------|
A|--10-10-10-10--10-10-10-10--8-8-8-8----11-11-11-11--11-11-11-11--8-8-8-8---|
F|--10-10-10-10--10-10-10-10--9-9-9-9----10-10-10-10--10-10-10-10--9-9-9-9---|
C|---------------------------------------------------------------------------|
G|---------------------------------------------------------------------------|
C|---------------------------------------------------------------------------|
 |                                                                           |
 |Guitar 2                                                                   |
D|---------------------------------------------------------------------------|
A|---------------------------------------------------------------------------|
F|---------------------------------------------------------------------------|
C|--0-0-0-0--0-0-0-0--0-0-0-0--0-0-0-0---8-8-8-8--8-8-8-8--8-8-8-8--8-8-8-8--|
G|--0-0-0-0--0-0-0-0--0-0-0-0--0-0-0-0---8-8-8-8--8-8-8-8--8-8-8-8--8-8-8-8--|
C|--0-0-0-0--0-0-0-0--0-0-0-0--0-0-0-0---8-8-8-8--8-8-8-8--8-8-8-8--8-8-8-8--|


Guitar 1
D|-------------------------------------------------------------------|-------------|
A|-10-10-10-10--10-10-10-10--11-11-11-11---8-8-8-8--8-8-8-8--8-8-8-8-|-8--8--8--8--|
F|-10-10-10-10--10-10-10-10--12-12-12-12---9-9-9-9--9-9-9-9--9-9-9-9-|-10-10-10-10-|
C|-------------------------------------------------------------------|-------------|
G|-------------------------------------------------------------------|-------------|
C|-------------------------------------------------------------------|-------------|
 |                                                                                 |
 |Guitar 2                                                                         |
D|-------------------------------------------------------------------|-------------|
A|-------------------------------------------------------------------|-------------|
F|-------------------------------------------------------------------|-------------|
C|--3-3-3-3--3-3-3-3--3-3-3-3--3-3-3-3-----2-2-2-2--2-2-2-2--2-2-2-2-|------3------|
G|--3-3-3-3--3-3-3-3--3-3-3-3--3-3-3-3-----3-3-3-3--3-3-3-3--3-3-3-3-|-0-0---------|
C|--3-3-3-3--3-3-3-3--3-3-3-3--3-3-3-3-----2-2-2-2--2-2-2-2--2-2-2-2-|-0-0---------|
                                                                       . .


                                 First time playing the intro through ^^^
                    Second time, both guitars end the intro with this vvv

[ Tab from: http://www.guitaretab.com/s/sonic-syndicate/195566.html ]
                                                                    D|-------------|
                                                                    A|-------------|
                                                                    F|-------------|
                                                                    C|-------------|
                                                                    G|--0-0-0-0----|
                                                                    C|--0-0-0-0----|
                                                                        . . . .

Verses - (have a listen for respective parts and rhythms)

Guitar 1
D|-----------------------------------|---------------------------------------|
A|------3---3-------6-5---6---1---3--|------3---3-------1-----1-------3------|
F|-----------------------------------|--------------------2-------2----------|
C|--0-0---0---0-0-0-----0---0---0----|--0-0---0---0-0-0-----0---0---0--------|
G|-----------------------------------|---------------------------------------|
C|-----------------------------------|---------------------------------------|
 |                                                                           |
 |                                                                           |
D|-----------------------------------|---------------------------------------|
A|------3---3-------5-----5---6---3--|------6---6---3---8-----1-----3--------|
F|-----------------------------------|---------------------------------------|
C|--0-0---0---0-0-0---0-0---0---0----|--0-0---0---0---0---0-0---0-0---0------|
G|-----------------------------------|---------------------------------------|
C|-----------------------------------|---------------------------------------|


Guitar 2
D|-----------------------------------|---------------------------------------|
A|-----------------------------------|---------------------------------------|
F|-----------------------------------|---------------------------------------|_1st verse
C|-----------------------------------|---------------------------------------|
G|--0-0------------------------------|---------------------------------------|
C|--0-0------------------------------|---------------------------------------|
 |                                                                           |
 |                                                                           |
D|-----------------------------------|---------------------------------------|
A|-----------------------------------|---------------------------------------|
F|-----------------------------------|---------------------------------------|_2nd verse
C|-----------------------------------|---------------------------------------|
G|--0-0--0-0--0-0--0-0-0-0--0-0------|---------------------------------------|
C|--0-0--0-0--0-0--0-0-0-0--0-0------|---------------------------------------|

okay, i got a bit lazy so i'll finish it when i can, but go on the website mentioned 
and it's all there if you want the tab now :)
Related for Denied tab
Denied chords by Sonic Syndicate