Song name
# A B C D E F G H I J K L M N O P Q R S T U V W X Y Z

Sonic Youth - Candle tab

bueno esta es una manera de tocarla mas facil...
es como un improvizacion ,es la manera de tocar este tema con las cuerdas
en standar e

intro


|-----------------------------------------|
|----5-------5--------3-------3-----------|
|---5-5-----5-5------3-3-----3-3----------|
|--5---5---5---5----3---3---3---3---------|  X2
|-3-----3-3-----5--1-----1-1-----1--------|
|-----------------------------------------|


|-------------------------------------------------|
|-------------------------------------------------|
|--2-3-2-2-2-3-2-2--4-5-4-4-4-5-4-4-4-5-4-4-4-5-4-|
|-0-0---0-0-0---0--2-2---2-2-2---2-2-2---2-2-2-2--|
|-------------------------------------------------|
|-------------------------------------------------|
             _________________________________
            /                                 \
|---------------------------------------------|
|--------------5-------5-------3-------3------|
|-------------5-5-----5-5-----3-3-----3-3-----|  X2
|-2222-000---5---5---5---5---3---3---3---3----|
|---------333-----3-3-----3-1-----1-1-----1---|
|---------------------------------------------|


(bridge)
|-----------------------|
|-----------------------|
|-9-9-7-7-7-7-5-5-5-----| X4
|-x-x-x-x-x-x-x-x-x-----|
|-7-7-5-5-5-5-3-3-3-----|
|-----------------------|


(bridge 2)
|x-x-   se puede arpegiar esa parte tmb
|3-2-   con la segunda guitarra
|3-2-
|0-0-
|3-3-
|x-x-


aca se toca A y Asus4 .tmb podes hacer esto

(verse)
|-0-0---------------|
|-2-2-3-2-----------|
|-2-2----2-2-0-2----|
|-2-2---------------|
|-x-x---------------|
|-x-x---------------|


despues


C
i'm the cocker
Bb
of the rock
C
wind is whipping through my
D
stupid mop


y asi todo el tema..


la parte rapida es asi


|-0-0-0-0-0-x---9^--9^--9^--9^--9^--x-x------|
|-2-2-2-2-2-x---10^-10^-10^-10^-10^-x-x------|  X4
|-2-2-2-2-2-x---9^--9^--9^--9^--9^--x-x------|
|-2-2-2-2-2-x--------------------------------|
|-0-0-0-0-0-x--------------------------------|
|--------------------------------------------|


despues vuelve al "bridge" y luego el "verse" y todo lo demas


y termina en..

|-0-
|-3-
|-3-
|-0-
|-0-
|-3-

bueno esto para mi keda bien y esta muy bueno jajaj
espero q les sirva .chau


algun problema   :    lito_violero@hotmail.com
Tap to rate this tab
# A B C D E F G H I J K L M N O P Q R S T U V W X Y Z