Song name
# A B C D E F G H I J K L M N O P Q R S T U V W X Y Z

Sonic Youth - Wish Fulfillment tab

******************************
*         Sonic Youth        *
*       Wish Fulfillment     *
******************************

Band: Sonic Youth
Song: Wish Fulfillment
Album: Dirty

Transcribed by Andrew Tait
on 10/Jan/04

Notes: Through most of this song the 2nd guitar plays a lot of feedback and noisy sound.
This tab is for one guitar only.

Legend:
~ let ring
M mute



verse

E-|-----------------------------------------------------------------------------
B-|-----------------------------------------------------------------------------
G-|-----------------------------------------------------------------------------
D-|------5----4--5---5-------5----4--5---5--------2----4--2---4~--2-----2---2---
A-|----5---5-------5-------5---5-------5--------2---2-------2--------2~---2-----
E-|--3------------------3---------------------0--------------------0------------


E-|-----------------------------------------------------------------------------
B-|-----------------------------------------------------------------------------
G-|-----------------------------------------------------------------------------
D-|------5----4--5---5-------5----4--5---5--------2----4--2---4~--2---4~--2---2-
A-|----5---5-------5-------5---5-------5--------2---2-------2--------2------2---    
E-|--3------------------3---------------------0---------------------------------

play this through five times.


chorus

E-|--------------------------------------
B-|--------------------------------------
G-|--------------------------------------
D-|--5--5--5--5--5--5--5--5--5--5--5--5--
A-|--5--5--5--5--5--5--5--5--5--5--5--5--
E-|--3--3--3--3--3--3--3--3--3--3--3--3--
           M  M  M           M  M  M  M
What's real?...

E-|----------------------------------------
B-|----------------------------------------
G-|----------------------------------------
D-|--3~--2--2--2--2--2--3~--2--2--2--2--2--
A-|--3~--2--2--2--2--2--3~--2--2--2--2--2--
E-|--2~--0--0--0--0--0--2~--0--0--0--0--0--
I ain't turning my back..
  
E-|--------------------------------------
B-|--------------------------------------
G-|--------------------------------------
D-|--5--5--5--5--5--5--5--5--5--5--5--5--
A-|--5--5--5--5--5--5--5--5--5--5--5--5--
E-|--3--3--3--3--3--3--3--3--3--3--3--3--
           M  M  M           M  M  M  M

E-|----------------------------------------
B-|----------------------------------------
G-|----------------------------------------
D-|--3~--2--2--2--2--2--3~--2--2--2--2--2--
A-|--3~--2--2--2--2--2--3~--2--2--2--2--2--
E-|--2~--0--0--0--0--0--2~--0--0--0--0--0--



E-|--4--4--4--4--4--4--5--5--5--5--5--5--4--4--4--4--4--4--5--5--5--5--5--5-
B-|--4--4--4--4--4--4--5--5--5--5--5--5--4--4--4--4--4--4--5--5--5--5--5--5-
G-|--6--6--6--6--6--6--7--7--7--7--7--7--6--6--6--6--6--6--7--7--7--7--7--7-
D-|--6--6--6--6--6--6--7--7--7--7--7--7--6--6--6--6--6--6--7--7--7--7--7--7-
A-|--4--4--4--4--4--4--5--5--5--5--5--5--4--4--4--4--4--4--5--5--5--5--5--5-
E-|-------------------------------------------------------------------------
It might be simple...

E-|--4--4--4--4--4--4--5--5--5--5--5--5--7--7--7--7--7-
B-|--4--4--4--4--4--4--5--5--5--5--5--5--7--7--7--7--7-
G-|--6--6--6--6--6--6--7--7--7--7--7--7--9--9--9--9--9-
D-|--6--6--6--6--6--6--7--7--7--7--7--7--9--9--9--9--9-
A-|--4--4--4--4--4--4--5--5--5--5--5--5--7--7--7--7--7-
E-|----------------------------------------------------

E-|-------------------------
B-|-------------------------
G-|-------------------------
D-|--2--3--3--3--3--3--3--3-
A-|--2--3--3--3--3--3--3--3-
E-|--0--2--2--2--2--2--2--2-

E-|--4--4--4--4--4--4--5--5--5--5--5--5--4--4--4--4--4--4--5--5--5--5--5--5-
B-|--4--4--4--4--4--4--5--5--5--5--5--5--4--4--4--4--4--4--5--5--5--5--5--5-
G-|--6--6--6--6--6--6--7--7--7--7--7--7--6--6--6--6--6--6--7--7--7--7--7--7-
D-|--6--6--6--6--6--6--7--7--7--7--7--7--6--6--6--6--6--6--7--7--7--7--7--7-
A-|--4--4--4--4--4--4--5--5--5--5--5--5--4--4--4--4--4--4--5--5--5--5--5--5-
E-|-------------------------------------------------------------------------
Its such a mess..

E-|--4--4--4--4--4--4--5--5--5--5--5--5--7--7--7--7--7-
B-|--4--4--4--4--4--4--5--5--5--5--5--5--7--7--7--7--7-
G-|--6--6--6--6--6--6--7--7--7--7--7--7--9--9--9--9--9-
D-|--6--6--6--6--6--6--7--7--7--7--7--7--9--9--9--9--9-
A-|--4--4--4--4--4--4--5--5--5--5--5--5--7--7--7--7--7-
E-|----------------------------------------------------

E-|---------------------------4--4--4--4------
B-|---------------------------4--4--4--4------
G-|---------------------------6--6--6--6------
D-|--2--3--3--3--3--3--3--3---6--6--6--6--2~~-
A-|--2--3--3--3--3--3--3--3---4--4--4--4--2~~-
E-|--0--2--2--2--2--2--2--2---------------0~~-


verse

E-|-----------------------------------------------------------------------------
B-|-----------------------------------------------------------------------------
G-|-----------------------------------------------------------------------------
D-|------5----4--5---5-------5----4--5---5--------2----4--2---4~--2-----2---2---
A-|----5---5-------5-------5---5-------5--------2---2-------2--------2~---2-----
E-|--3------------------3---------------------0--------------------0------------


E-|-----------------------------------------------------------------------------
B-|-----------------------------------------------------------------------------
G-|-----------------------------------------------------------------------------
D-|------5----4--5---5-------5----4--5---5--------2----4--2---4~--2---4~--2---2-
A-|----5---5-------5-------5---5-------5--------2---2-------2--------2------2---    
E-|--3------------------3---------------------0---------------------------------

play this through four times.


chorus

E-|--------------------------------------
B-|--------------------------------------
G-|--------------------------------------
D-|--5--5--5--5--5--5--5--5--5--5--5--5--
A-|--5--5--5--5--5--5--5--5--5--5--5--5--
E-|--3--3--3--3--3--3--3--3--3--3--3--3--
           M  M  M           M  M  M  M
Shake it baby...

E-|----------------------------------------
B-|----------------------------------------
G-|----------------------------------------
D-|--3~--2--2--2--2--2--3~--2--2--2--2--2--
A-|--3~--2--2--2--2--2--3~--2--2--2--2--2--
E-|--2~--0--0--0--0--0--2~--0--0--0--0--0--
Just see your face...

E-|--------------------------------------
B-|--------------------------------------
G-|--------------------------------------
D-|--5--5--5--5--5--5--5--5--5--5--5--5--
A-|--5--5--5--5--5--5--5--5--5--5--5--5--
E-|--3--3--3--3--3--3--3--3--3--3--3--3--
           M  M  M           M  M  M  M

E-|----------------------------------------
B-|----------------------------------------
G-|----------------------------------------
D-|--3~--2--2--2--2--2--3~--2--2--2--2--2--
A-|--3~--2--2--2--2--2--3~--2--2--2--2--2--
E-|--2~--0--0--0--0--0--2~--0--0--0--0--0--



E-|--4--4--4--4--4--4--5--5--5--5--5--5--4--4--4--4--4--4--5--5--5--5--5--5-
B-|--4--4--4--4--4--4--5--5--5--5--5--5--4--4--4--4--4--4--5--5--5--5--5--5-
G-|--6--6--6--6--6--6--7--7--7--7--7--7--6--6--6--6--6--6--7--7--7--7--7--7-
D-|--6--6--6--6--6--6--7--7--7--7--7--7--6--6--6--6--6--6--7--7--7--7--7--7-
A-|--4--4--4--4--4--4--5--5--5--5--5--5--4--4--4--4--4--4--5--5--5--5--5--5-
E-|-------------------------------------------------------------------------
It's my favourite...

E-|--4--4--4--4--4--4--5--5--5--5--5--5--7--7--7--7--7-
B-|--4--4--4--4--4--4--5--5--5--5--5--5--7--7--7--7--7-
G-|--6--6--6--6--6--6--7--7--7--7--7--7--9--9--9--9--9-
D-|--6--6--6--6--6--6--7--7--7--7--7--7--9--9--9--9--9-
A-|--4--4--4--4--4--4--5--5--5--5--5--5--7--7--7--7--7-
E-|----------------------------------------------------

E-|-------------------------
B-|-------------------------
G-|-------------------------
D-|--2--3--3--3--3--3--3--3-
A-|--2--3--3--3--3--3--3--3-
E-|--0--2--2--2--2--2--2--2-

E-|--4--4--4--4--4--4--5--5--5--5--5--5--4--4--4--4--4--4--5--5--5--5--5--5-
B-|--4--4--4--4--4--4--5--5--5--5--5--5--4--4--4--4--4--4--5--5--5--5--5--5-
G-|--6--6--6--6--6--6--7--7--7--7--7--7--6--6--6--6--6--6--7--7--7--7--7--7-
D-|--6--6--6--6--6--6--7--7--7--7--7--7--6--6--6--6--6--6--7--7--7--7--7--7-
A-|--4--4--4--4--4--4--5--5--5--5--5--5--4--4--4--4--4--4--5--5--5--5--5--5-
E-|-------------------------------------------------------------------------
We're only blood on...

E-|--4--4--4--4--4--4--5--5--5--5--5--5--7--7--7--7--7-
B-|--4--4--4--4--4--4--5--5--5--5--5--5--7--7--7--7--7-
G-|--6--6--6--6--6--6--7--7--7--7--7--7--9--9--9--9--9-
D-|--6--6--6--6--6--6--7--7--7--7--7--7--9--9--9--9--9-
A-|--4--4--4--4--4--4--5--5--5--5--5--5--7--7--7--7--7-
E-|----------------------------------------------------

E-|---------------------------4--4--4--4------
B-|---------------------------4--4--4--4------
G-|---------------------------6--6--6--6------
D-|--2--3--3--3--3--3--3--3---6--6--6--6--2~~-
A-|--2--3--3--3--3--3--3--3---4--4--4--4--2~~-
E-|--0--2--2--2--2--2--2--2---------------0~~-


the end.
Tap to rate this tab
# A B C D E F G H I J K L M N O P Q R S T U V W X Y Z