Guitaretab - guitar tabs
Song name
# A B C D E F G H I J K L M N O P Q R S T U V W X Y Z

Sonicflood - In Your Presence tab

-------------------------------------------------------------------------------
                        IN YOUR PRESENCE - Sonicflood
-------------------------------------------------------------------------------
Tabbed By: 0GibsonLesPaul0


Tuning: Standard (capo #1)

I couldnít find the lyrics for this song and I didnít want to attempt to confer
them so I just did this:


VERSE

   D      Am       D       Am      D      Bm      Am       E      Bm       Am
e|-2---|---0---|---2---|---0---|---2---|---2---|---0---|---0---|---2---|---0--|
B|-3---|---0---|---3---|---0---|---3---|---3---|---0---|---0---|---3---|---0--|
G|-2---|---2---|---2---|---2---|---2---|---4---|---2---|---3---|---4---|---2--|
D|-0---|---2---|---0---|---2---|---0---|---4---|---2---|---2---|---4---|---2--|
A|-----|---0---|-------|---0---|-------|---2---|---0---|---2---|---2---|---0--|
E|-----|-------|-------|-------|-------|-------|-------|---0---|-------|------|


CHORUS | 4X

e|-----------------|
B|-----------------|
G|-4----2-2--------|
D|-4----2-2---2----|
A|-2----0-0---2----|
E|------------0----|


VERSE
[ Tab from: http://www.guitaretab.com/s/sonicflood/181837.html ]
   D      Am       D       Am      D      Bm      Am       E      Bm       Am
e|-2---|---0---|---2---|---0---|---2---|---2---|---0---|---0---|---2---|---0--|
B|-3---|---0---|---3---|---0---|---3---|---3---|---0---|---0---|---3---|---0--|
G|-2---|---2---|---2---|---2---|---2---|---4---|---2---|---3---|---4---|---2--|
D|-0---|---2---|---0---|---2---|---0---|---4---|---2---|---2---|---4---|---2--|
A|-----|---0---|-------|---0---|-------|---2---|---0---|---2---|---2---|---0--|
E|-----|-------|-------|-------|-------|-------|-------|---0---|-------|------|


CHORUS | 4X

e|-----------------|
B|-----------------|
G|-4----2-2--------|
D|-4----2-2---2----|
A|-2----0-0---2----|
E|------------0----|


SOLO

e|--------------------------------/5---5b7----5--|
B|-0-2-3-3b4-2----3-2-3/5~----7-5----------------|
G|-------------2---------------------------------|
D|-----------------------------------------------|
A|-----------------------------------------------|
E|-----------------------------------------------|

CHORUS | 4X

e|-----------------|
B|-----------------|
G|-4----2-2--------|
D|-4----2-2---2----|
A|-2----0-0---2----|
E|------------0----|

chorus again with no guitar

then:

CHORUS | 4X

e|-----------------|
B|-----------------|
G|-4----2-2--------|
D|-4----2-2---2----|
A|-2----0-0---2----|
E|------------0----|

keep repeating and fade out
Related for In Your Presence tab